  0
SECTION
  2
HEADER
  9
$ACADVER
  1
AC1015
  9
$ACADMAINTVER
 70
     6
  9
$DWGCODEPAGE
  3
ANSI_1254
  9
$INSBASE
 10
0.0
 20
0.0
 30
0.0
  9
$EXTMIN
 10
0.0
 20
0.0
 30
0.0
  9
$EXTMAX
 10
279.4
 20
215.9
 30
0.0
  9
$LIMMIN
 10
0.0
 20
0.0
  9
$LIMMAX
 10
279.4
 20
215.9
  9
$ORTHOMODE
 70
     0
  9
$REGENMODE
 70
     1
  9
$FILLMODE
 70
     1
  9
$QTEXTMODE
 70
     0
  9
$MIRRTEXT
 70
     1
  9
$LTSCALE
 40
1.0
  9
$ATTMODE
 70
     1
  9
$TEXTSIZE
 40
3.5
  9
$TRACEWID
 40
1.0
  9
$TEXTSTYLE
  7
Standard
  9
$CLAYER
  8
0
  9
$CELTYPE
  6
ByLayer
  9
$CECOLOR
 62
   256
  9
$CELTSCALE
 40
1.0
  9
$DISPSILH
 70
     0
  9
$DIMSCALE
 40
1.0
  9
$DIMASZ
 40
3.5
  9
$DIMEXO
 40
1.0
  9
$DIMDLI
 40
3.75
  9
$DIMRND
 40
0.0
  9
$DIMDLE
 40
0.0
  9
$DIMEXE
 40
1.0
  9
$DIMTP
 40
0.0
  9
$DIMTM
 40
0.0
  9
$DIMTXT
 40
3.5
  9
$DIMCEN
 40
2.5
  9
$DIMTSZ
 40
0.0
  9
$DIMTOL
 70
     0
  9
$DIMLIM
 70
     0
  9
$DIMTIH
 70
     1
  9
$DIMTOH
 70
     1
  9
$DIMSE1
 70
     0
  9
$DIMSE2
 70
     0
  9
$DIMTAD
 70
     1
  9
$DIMZIN
 70
     0
  9
$DIMBLK
  1

  9
$DIMASO
 70
     1
  9
$DIMSHO
 70
     1
  9
$DIMPOST
  1

  9
$DIMAPOST
  1

  9
$DIMALT
 70
     0
  9
$DIMALTD
 70
     3
  9
$DIMALTF
 40
0.0393700787
  9
$DIMLFAC
 40
1.0
  9
$DIMTOFL
 70
     1
  9
$DIMTVP
 40
0.0
  9
$DIMTIX
 70
     0
  9
$DIMSOXD
 70
     0
  9
$DIMSAH
 70
     0
  9
$DIMBLK1
  1

  9
$DIMBLK2
  1

  9
$DIMSTYLE
  2
ISO-25
  9
$DIMCLRD
 70
     0
  9
$DIMCLRE
 70
     0
  9
$DIMCLRT
 70
     0
  9
$DIMTFAC
 40
1.0
  9
$DIMGAP
 40
1.524
  9
$DIMJUST
 70
     0
  9
$DIMSD1
 70
     0
  9
$DIMSD2
 70
     0
  9
$DIMTOLJ
 70
     0
  9
$DIMTZIN
 70
     0
  9
$DIMALTZ
 70
     0
  9
$DIMALTTZ
 70
     0
  9
$DIMUPT
 70
     0
  9
$DIMDEC
 70
     2
  9
$DIMTDEC
 70
     2
  9
$DIMALTU
 70
     2
  9
$DIMALTTD
 70
     3
  9
$DIMTXSTY
  7
Standard
  9
$DIMAUNIT
 70
     0
  9
$DIMADEC
 70
     2
  9
$DIMALTRND
 40
0.0
  9
$DIMAZIN
 70
     0
  9
$DIMDSEP
 70
    44
  9
$DIMATFIT
 70
     3
  9
$DIMFRAC
 70
     0
  9
$DIMLDRBLK
  1

  9
$DIMLUNIT
 70
     2
  9
$DIMLWD
 70
    -2
  9
$DIMLWE
 70
    -2
  9
$DIMTMOVE
 70
     0
  9
$LUNITS
 70
     2
  9
$LUPREC
 70
     2
  9
$SKETCHINC
 40
1.0
  9
$FILLETRAD
 40
10.0
  9
$AUNITS
 70
     0
  9
$AUPREC
 70
     2
  9
$MENU
  1
.
  9
$ELEVATION
 40
0.0
  9
$PELEVATION
 40
0.0
  9
$THICKNESS
 40
0.0
  9
$LIMCHECK
 70
     0
  9
$CHAMFERA
 40
0.0
  9
$CHAMFERB
 40
0.0
  9
$CHAMFERC
 40
0.0
  9
$CHAMFERD
 40
0.0
  9
$SKPOLY
 70
     0
  9
$TDCREATE
 40
2460346.670761227
  9
$TDUCREATE
 40
2460346.545761227
  9
$TDUPDATE
 40
2460346.6707614
  9
$TDUUPDATE
 40
2460346.5457614
  9
$TDINDWG
 40
0.0000000116
  9
$TDUSRTIMER
 40
0.0000000116
  9
$USRTIMER
 70
     1
  9
$ANGBASE
 50
0.0
  9
$ANGDIR
 70
     0
  9
$PDMODE
 70
     0
  9
$PDSIZE
 40
-1.0
  9
$PLINEWID
 40
0.0
  9
$SPLFRAME
 70
     0
  9
$SPLINETYPE
 70
     6
  9
$SPLINESEGS
 70
     8
  9
$HANDSEED
  5
128
  9
$SURFTAB1
 70
     6
  9
$SURFTAB2
 70
     6
  9
$SURFTYPE
 70
     6
  9
$SURFU
 70
     6
  9
$SURFV
 70
     6
  9
$UCSBASE
  2

  9
$UCSNAME
  2

  9
$UCSORG
 10
0.0
 20
0.0
 30
0.0
  9
$UCSXDIR
 10
1.0
 20
0.0
 30
0.0
  9
$UCSYDIR
 10
0.0
 20
1.0
 30
0.0
  9
$UCSORTHOREF
  2

  9
$UCSORTHOVIEW
 70
     0
  9
$UCSORGTOP
 10
0.0
 20
0.0
 30
0.0
  9
$UCSORGBOTTOM
 10
0.0
 20
0.0
 30
0.0
  9
$UCSORGLEFT
 10
0.0
 20
0.0
 30
0.0
  9
$UCSORGRIGHT
 10
0.0
 20
0.0
 30
0.0
  9
$UCSORGFRONT
 10
0.0
 20
0.0
 30
0.0
  9
$UCSORGBACK
 10
0.0
 20
0.0
 30
0.0
  9
$PUCSBASE
  2

  9
$PUCSNAME
  2

  9
$PUCSORG
 10
0.0
 20
0.0
 30
0.0
  9
$PUCSXDIR
 10
1.0
 20
0.0
 30
0.0
  9
$PUCSYDIR
 10
0.0
 20
1.0
 30
0.0
  9
$PUCSORTHOREF
  2

  9
$PUCSORTHOVIEW
 70
     0
  9
$PUCSORGTOP
 10
0.0
 20
0.0
 30
0.0
  9
$PUCSORGBOTTOM
 10
0.0
 20
0.0
 30
0.0
  9
$PUCSORGLEFT
 10
0.0
 20
0.0
 30
0.0
  9
$PUCSORGRIGHT
 10
0.0
 20
0.0
 30
0.0
  9
$PUCSORGFRONT
 10
0.0
 20
0.0
 30
0.0
  9
$PUCSORGBACK
 10
0.0
 20
0.0
 30
0.0
  9
$USERI1
 70
     0
  9
$USERI2
 70
     0
  9
$USERI3
 70
     0
  9
$USERI4
 70
     0
  9
$USERI5
 70
     0
  9
$USERR1
 40
0.0
  9
$USERR2
 40
0.0
  9
$USERR3
 40
0.0
  9
$USERR4
 40
0.0
  9
$USERR5
 40
0.0
  9
$WORLDVIEW
 70
     1
  9
$SHADEDGE
 70
     3
  9
$SHADEDIF
 70
    70
  9
$TILEMODE
 70
     1
  9
$MAXACTVP
 70
    64
  9
$PINSBASE
 10
0.0
 20
0.0
 30
0.0
  9
$PLIMCHECK
 70
     0
  9
$PEXTMIN
 10
1.0000000000E+20
 20
1.0000000000E+20
 30
1.0000000000E+20
  9
$PEXTMAX
 10
-1.0000000000E+20
 20
-1.0000000000E+20
 30
-1.0000000000E+20
  9
$PLIMMIN
 10
0.0
 20
0.0
  9
$PLIMMAX
 10
420.0
 20
297.0
  9
$UNITMODE
 70
     0
  9
$VISRETAIN
 70
     1
  9
$PLINEGEN
 70
     0
  9
$PSLTSCALE
 70
     1
  9
$TREEDEPTH
 70
  3020
  9
$CMLSTYLE
  2
Standard
  9
$CMLJUST
 70
     0
  9
$CMLSCALE
 40
20.0
  9
$PROXYGRAPHICS
 70
     1
  9
$MEASUREMENT
 70
     1
  9
$CELWEIGHT
370
    -1
  9
$ENDCAPS
280
     0
  9
$JOINSTYLE
280
     0
  9
$LWDISPLAY
290
     1
  9
$INSUNITS
 70
     4
  9
$HYPERLINKBASE
  1

  9
$STYLESHEET
  1

  9
$XEDIT
290
     1
  9
$CEPSNTYPE
380
     0
  9
$PSTYLEMODE
290
     1
  9
$FINGERPRINTGUID
  2
{42c64c58-e194-4895-93dd-0afa99c6f607}
  9
$VERSIONGUID
  2
{FAEB1C32-E019-11D5-929B-00C0DF256EC4}
  9
$EXTNAMES
290
     1
  9
$PSVPSCALE
 40
0.0
  9
$OLESTARTUP
290
     0
  0
ENDSEC
  0
SECTION
  2
CLASSES
  0
CLASS
  1
ACDBDICTIONARYWDFLT
  2
AcDbDictionaryWithDefault
  3
ObjectDBX Classes
 90
        0
280
     0
281
     0
  0
CLASS
  1
VISUALSTYLE
  2
AcDbVisualStyle
  3
ObjectDBX Classes
 90
     4095
280
     0
281
     0
  0
CLASS
  1
MATERIAL
  2
AcDbMaterial
  3
ObjectDBX Classes
 90
     1153
280
     0
281
     0
  0
CLASS
  1
SCALE
  2
AcDbScale
  3
ObjectDBX Classes
 90
     1153
280
     0
281
     0
  0
CLASS
  1
TABLESTYLE
  2
AcDbTableStyle
  3
ObjectDBX Classes
 90
     4095
280
     0
281
     0
  0
CLASS
  1
MLEADERSTYLE
  2
AcDbMLeaderStyle
  3
ACDB_MLEADERSTYLE_CLASS
 90
     4095
280
     0
281
     0
  0
CLASS
  1
SUN
  2
AcDbSun
  3
SCENEOE
 90
     1153
280
     0
281
     0
  0
CLASS
  1
ACDBPLACEHOLDER
  2
AcDbPlaceHolder
  3
ObjectDBX Classes
 90
        0
280
     0
281
     0
  0
CLASS
  1
LAYOUT
  2
AcDbLayout
  3
ObjectDBX Classes
 90
        0
280
     0
281
     0
  0
ENDSEC
  0
SECTION
  2
TABLES
  0
TABLE
  2
VPORT
  5
8
330
0
100
AcDbSymbolTable
 70
     1
  0
VPORT
  5
29
330
8
100
AcDbSymbolTableRecord
100
AcDbViewportTableRecord
  2
*Active
 70
     0
 10
0.0
 20
0.0
 11
1.0
 21
1.0
 12
139.7
 22
107.95
 13
0.0
 23
0.0
 14
10.0
 24
10.0
 15
10.0
 25
10.0
 16
0.0
 26
0.0
 36
1.0
 17
0.0
 27
0.0
 37
0.0
 40
215.9
 41
1.2941176471
 42
50.0
 43
0.0
 44
0.0
 50
0.0
 51
0.0
 71
     0
 72
  2000
 73
     1
 74
     3
 75
     0
 76
     0
 77
     0
 78
     0
281
     0
 65
     1
110
0.0
120
0.0
130
0.0
111
1.0
121
0.0
131
0.0
112
0.0
122
1.0
132
0.0
 79
     0
146
0.0
  0
ENDTAB
  0
TABLE
  2
LTYPE
  5
5
330
0
100
AcDbSymbolTable
 70
     6
  0
LTYPE
  5
14
330
5
100
AcDbSymbolTableRecord
100
AcDbLinetypeTableRecord
  2
ByBlock
 70
     0
  3

 72
    65
 73
     0
 40
0.0
  0
LTYPE
  5
15
330
5
100
AcDbSymbolTableRecord
100
AcDbLinetypeTableRecord
  2
ByLayer
 70
     0
  3

 72
    65
 73
     0
 40
0.0
  0
LTYPE
  5
16
330
5
100
AcDbSymbolTableRecord
100
AcDbLinetypeTableRecord
  2
Continuous
 70
     0
  3
Solid line
 72
    65
 73
     0
 40
0.0
  0
LTYPE
  5
6E
330
5
100
AcDbSymbolTableRecord
100
AcDbLinetypeTableRecord
  2
HIDDEN
 70
     0
  3
Hidden __ __ __ __ __ __ __ __ __ __ __ __ __ __
 72
    65
 73
     2
 40
1.905
 49
1.27
 74
     0
 49
-0.635
 74
     0
  0
LTYPE
  5
6F
330
5
100
AcDbSymbolTableRecord
100
AcDbLinetypeTableRecord
  2
PHANTOM
 70
     0
  3
Phantom ______  __  __  ______  __  __  ______
 72
    65
 73
     6
 40
12.7
 49
6.35
 74
     0
 49
-1.27
 74
     0
 49
1.27
 74
     0
 49
-1.27
 74
     0
 49
1.27
 74
     0
 49
-1.27
 74
     0
  0
LTYPE
  5
70
330
5
100
AcDbSymbolTableRecord
100
AcDbLinetypeTableRecord
  2
CENTER
 70
     0
  3
Center ____ _ ____ _ ____ _ ____ _ ____ _ ____
 72
    65
 73
     4
 40
10.16
 49
6.35
 74
     0
 49
-1.27
 74
     0
 49
1.27
 74
     0
 49
-1.27
 74
     0
  0
LTYPE
  5
71
330
5
100
AcDbSymbolTableRecord
100
AcDbLinetypeTableRecord
  2
CENTERX2
 70
     0
  3
Center (2x) ________  __  ________  __  _____
 72
    65
 73
     4
 40
20.32
 49
12.7
 74
     0
 49
-2.54
 74
     0
 49
2.54
 74
     0
 49
-2.54
 74
     0
  0
LTYPE
  5
72
330
5
100
AcDbSymbolTableRecord
100
AcDbLinetypeTableRecord
  2
DOT2
 70
     0
  3
Dot (.5x) ........................................
 72
    65
 73
     2
 40
0.635
 49
0.0
 74
     0
 49
-0.635
 74
     0
  0
ENDTAB
  0
TABLE
  2
LAYER
  5
2
330
0
100
AcDbSymbolTable
 70
    17
  0
LAYER
  5
10
330
2
100
AcDbSymbolTableRecord
100
AcDbLayerTableRecord
  2
0
 70
     0
 62
     7
  6
Continuous
370
    -3
390
F
  0
LAYER
  5
73
330
2
100
AcDbSymbolTableRecord
100
AcDbLayerTableRecord
  2
FORMAT
 70
     0
 62
     7
  6
Continuous
370
    -3
390
F
  0
LAYER
  5
74
330
2
100
AcDbSymbolTableRecord
100
AcDbLayerTableRecord
  2
YARDIMCI_GEOMETRI
 70
     0
 62
    -6
  6
Continuous
290
     0
370
    -3
390
F
  0
LAYER
  5
75
330
2
100
AcDbSymbolTableRecord
100
AcDbLayerTableRecord
  2
SAYFA_CERCEVESI
 70
     0
 62
     7
  6
Continuous
370
    25
390
F
  0
LAYER
  5
76
330
2
100
AcDbSymbolTableRecord
100
AcDbLayerTableRecord
  2
ANTET
 70
     0
 62
     7
  6
Continuous
370
    -3
390
F
  0
LAYER
  5
77
330
2
100
AcDbSymbolTableRecord
100
AcDbLayerTableRecord
  2
OLCU
 70
     0
 62
   150
  6
Continuous
370
    -3
390
F
  0
LAYER
  5
78
330
2
100
AcDbSymbolTableRecord
100
AcDbLayerTableRecord
  2
METIN
 70
     0
 62
    96
  6
Continuous
370
    -3
390
F
  0
LAYER
  5
79
330
2
100
AcDbSymbolTableRecord
100
AcDbLayerTableRecord
  2
BALON
 70
     0
 62
     5
  6
Continuous
370
    -3
390
F
  0
LAYER
  5
7A
330
2
100
AcDbSymbolTableRecord
100
AcDbLayerTableRecord
  2
VURGU
 70
     0
 62
     7
  6
Continuous
370
    -3
390
F
  0
LAYER
  5
7B
330
2
100
AcDbSymbolTableRecord
100
AcDbLayerTableRecord
  2
SILIK
 70
     0
 62
     7
  6
Continuous
370
    -3
390
F
  0
LAYER
  5
7C
330
2
100
AcDbSymbolTableRecord
100
AcDbLayerTableRecord
  2
MODEL
 70
     0
 62
     7
  6
Continuous
370
    -3
390
F
  0
LAYER
  5
7D
330
2
100
AcDbSymbolTableRecord
100
AcDbLayerTableRecord
  2
DETAYLANDıRMA
 70
     0
 62
   190
  6
Continuous
370
    -3
390
F
  0
LAYER
  5
7E
330
2
100
AcDbSymbolTableRecord
100
AcDbLayerTableRecord
  2
TOLERANS
 70
     0
 62
   230
  6
Continuous
370
    -3
390
F
  0
LAYER
  5
7F
330
2
100
AcDbSymbolTableRecord
100
AcDbLayerTableRecord
  2
MERKEZ_CIZGILERI
 70
     0
 62
    30
  6
Continuous
370
    -3
390
F
  0
LAYER
  5
80
330
2
100
AcDbSymbolTableRecord
100
AcDbLayerTableRecord
  2
KESIT-DETAY_CIZGILERI
 70
     0
 62
     7
  6
Continuous
370
    -3
390
F
  0
LAYER
  5
81
330
2
100
AcDbSymbolTableRecord
100
AcDbLayerTableRecord
  2
\U+041E\U+0421\U+0415\U+0412\U+042B\U+0415
 70
     0
 62
     7
  6
Continuous
370
    -3
390
F
  0
LAYER
  5
82
330
2
100
AcDbSymbolTableRecord
100
AcDbLayerTableRecord
  2
\U+0412\U+041E\U+0414\U+042F\U+041D\U+042B\U+0415_\U+0417\U+041D\U+0410\U+041A\U+0418
 70
     0
 62
    11
  6
Continuous
370
    -3
390
F
  0
ENDTAB
  0
TABLE
  2
STYLE
  5
3
330
0
100
AcDbSymbolTable
 70
     1
  0
STYLE
  5
11
330
3
100
AcDbSymbolTableRecord
100
AcDbTextStyleTableRecord
  2
Standard
 70
     0
 40
0.0
 41
1.0
 50
0.0
 71
     0
 42
3.5
  3
txt
  4

  0
ENDTAB
  0
TABLE
  2
VIEW
  5
6
330
0
100
AcDbSymbolTable
 70
     0
  0
ENDTAB
  0
TABLE
  2
UCS
  5
7
330
0
100
AcDbSymbolTable
 70
     0
  0
ENDTAB
  0
TABLE
  2
APPID
  5
9
330
0
100
AcDbSymbolTable
 70
     1
  0
APPID
  5
12
330
9
100
AcDbSymbolTableRecord
100
AcDbRegAppTableRecord
  2
ACAD
 70
     0
  0
ENDTAB
  0
TABLE
  2
DIMSTYLE
  5
A
330
0
100
AcDbSymbolTable
 70
     1
100
AcDbDimStyleTable
  0
DIMSTYLE
105
27
330
A
100
AcDbSymbolTableRecord
100
AcDbDimStyleTableRecord
  2
ISO-25
 70
     0
 41
2.5
 42
0.625
 43
3.75
 44
1.25
 73
     0
 74
     0
 77
     1
 78
     8
140
2.5
141
2.5
143
0.0393700787
147
0.625
171
     3
172
     1
178
     0
271
     2
272
     2
274
     3
278
    44
283
     0
284
     8
340
11
  0
ENDTAB
  0
TABLE
  2
BLOCK_RECORD
  5
1
330
0
100
AcDbSymbolTable
 70
     4
  0
BLOCK_RECORD
  5
1F
330
1
100
AcDbSymbolTableRecord
100
AcDbBlockTableRecord
  2
*Model_Space
340
22
  0
BLOCK_RECORD
  5
1B
330
1
100
AcDbSymbolTableRecord
100
AcDbBlockTableRecord
  2
*Paper_Space
340
1E
  0
BLOCK_RECORD
  5
23
330
1
100
AcDbSymbolTableRecord
100
AcDbBlockTableRecord
  2
*Paper_Space0
340
26
  0
BLOCK_RECORD
  5
8E
330
1
100
AcDbSymbolTableRecord
100
AcDbBlockTableRecord
  2
SW_CENTERMARKSYMBOL_0
340
0
102
{BLKREFS
331
99
102
}
  0
BLOCK_RECORD
  5
C8
330
1
100
AcDbSymbolTableRecord
100
AcDbBlockTableRecord
  2
SW_CENTERMARKSYMBOL_1
340
0
102
{BLKREFS
331
D3
102
}
  0
BLOCK_RECORD
  5
D4
330
1
100
AcDbSymbolTableRecord
100
AcDbBlockTableRecord
  2
SW_CENTERMARKSYMBOL_2
340
0
102
{BLKREFS
331
DF
102
}
  0
ENDTAB
  0
ENDSEC
  0
SECTION
  2
BLOCKS
  0
BLOCK
  5
20
330
1F
100
AcDbEntity
  8
0
100
AcDbBlockBegin
  2
*Model_Space
 70
     0
 10
0.0
 20
0.0
 30
0.0
  3
*Model_Space
  1

  0
ENDBLK
  5
21
330
1F
100
AcDbEntity
  8
0
100
AcDbBlockEnd
  0
BLOCK
  5
1C
330
1B
100
AcDbEntity
 67
     1
  8
0
100
AcDbBlockBegin
  2
*Paper_Space
 70
     0
 10
0.0
 20
0.0
 30
0.0
  3
*Paper_Space
  1

  0
ENDBLK
  5
1D
330
1B
100
AcDbEntity
 67
     1
  8
0
100
AcDbBlockEnd
  0
BLOCK
  5
24
330
23
100
AcDbEntity
  8
0
100
AcDbBlockBegin
  2
*Paper_Space0
 70
     0
 10
0.0
 20
0.0
 30
0.0
  3
*Paper_Space0
  1

  0
ENDBLK
  5
25
330
23
100
AcDbEntity
  8
0
100
AcDbBlockEnd
  0
BLOCK
  5
8F
330
8E
100
AcDbEntity
  8
0
100
AcDbBlockBegin
  2
SW_CENTERMARKSYMBOL_0
 70
     0
 10
0.0
 20
0.0
 30
0.0
  3
SW_CENTERMARKSYMBOL_0
  1

  0
LINE
  5
91
330
8E
100
AcDbEntity
  8
FORMAT
 62
     0
100
AcDbLine
 10
0.0
 20
0.0
 30
0.0
 11
0.0
 21
2.5
 31
0.0
  0
LINE
  5
92
330
8E
100
AcDbEntity
  8
FORMAT
 62
     0
100
AcDbLine
 10
0.0
 20
0.0
 30
0.0
 11
-2.5
 21
0.0
 31
0.0
  0
LINE
  5
93
330
8E
100
AcDbEntity
  8
FORMAT
 62
     0
100
AcDbLine
 10
0.0
 20
0.0
 30
0.0
 11
0.0
 21
-2.5
 31
0.0
  0
LINE
  5
94
330
8E
100
AcDbEntity
  8
FORMAT
 62
     0
100
AcDbLine
 10
0.0
 20
0.0
 30
0.0
 11
2.5
 21
0.0
 31
0.0
  0
LINE
  5
95
330
8E
100
AcDbEntity
  8
FORMAT
 62
     0
100
AcDbLine
 10
0.0
 20
5.0
 30
0.0
 11
0.0
 21
42.5
 31
0.0
  0
LINE
  5
96
330
8E
100
AcDbEntity
  8
FORMAT
 62
     0
100
AcDbLine
 10
-5.0
 20
0.0
 30
0.0
 11
-42.5
 21
0.0
 31
0.0
  0
LINE
  5
97
330
8E
100
AcDbEntity
  8
FORMAT
 62
     0
100
AcDbLine
 10
0.0
 20
-5.0
 30
0.0
 11
0.0
 21
-42.5
 31
0.0
  0
LINE
  5
98
330
8E
100
AcDbEntity
  8
FORMAT
 62
     0
100
AcDbLine
 10
5.0
 20
0.0
 30
0.0
 11
42.5
 21
0.0
 31
0.0
  0
ENDBLK
  5
90
330
8E
100
AcDbEntity
  8
0
100
AcDbBlockEnd
  0
BLOCK
  5
C9
330
C8
100
AcDbEntity
  8
0
100
AcDbBlockBegin
  2
SW_CENTERMARKSYMBOL_1
 70
     0
 10
0.0
 20
0.0
 30
0.0
  3
SW_CENTERMARKSYMBOL_1
  1

  0
LINE
  5
CB
330
C8
100
AcDbEntity
  8
FORMAT
 62
     0
100
AcDbLine
 10
0.0
 20
0.0
 30
0.0
 11
0.0
 21
2.5
 31
0.0
  0
LINE
  5
CC
330
C8
100
AcDbEntity
  8
FORMAT
 62
     0
100
AcDbLine
 10
0.0
 20
0.0
 30
0.0
 11
-2.5
 21
0.0
 31
0.0
  0
LINE
  5
CD
330
C8
100
AcDbEntity
  8
FORMAT
 62
     0
100
AcDbLine
 10
0.0
 20
0.0
 30
0.0
 11
0.0
 21
-2.5
 31
0.0
  0
LINE
  5
CE
330
C8
100
AcDbEntity
  8
FORMAT
 62
     0
100
AcDbLine
 10
0.0
 20
0.0
 30
0.0
 11
2.5
 21
0.0
 31
0.0
  0
LINE
  5
CF
330
C8
100
AcDbEntity
  8
FORMAT
 62
     0
100
AcDbLine
 10
0.0
 20
5.0
 30
0.0
 11
0.0
 21
9.5
 31
0.0
  0
LINE
  5
D0
330
C8
100
AcDbEntity
  8
FORMAT
 62
     0
100
AcDbLine
 10
-5.0
 20
0.0
 30
0.0
 11
-9.5
 21
0.0
 31
0.0
  0
LINE
  5
D1
330
C8
100
AcDbEntity
  8
FORMAT
 62
     0
100
AcDbLine
 10
0.0
 20
-5.0
 30
0.0
 11
0.0
 21
-9.5
 31
0.0
  0
LINE
  5
D2
330
C8
100
AcDbEntity
  8
FORMAT
 62
     0
100
AcDbLine
 10
5.0
 20
0.0
 30
0.0
 11
9.5
 21
0.0
 31
0.0
  0
ENDBLK
  5
CA
330
C8
100
AcDbEntity
  8
0
100
AcDbBlockEnd
  0
BLOCK
  5
D5
330
D4
100
AcDbEntity
  8
0
100
AcDbBlockBegin
  2
SW_CENTERMARKSYMBOL_2
 70
     0
 10
0.0
 20
0.0
 30
0.0
  3
SW_CENTERMARKSYMBOL_2
  1

  0
LINE
  5
D7
330
D4
100
AcDbEntity
  8
FORMAT
 62
     0
100
AcDbLine
 10
0.0
 20
0.0
 30
0.0
 11
0.0
 21
2.5
 31
0.0
  0
LINE
  5
D8
330
D4
100
AcDbEntity
  8
FORMAT
 62
     0
100
AcDbLine
 10
0.0
 20
0.0
 30
0.0
 11
-2.5
 21
0.0
 31
0.0
  0
LINE
  5
D9
330
D4
100
AcDbEntity
  8
FORMAT
 62
     0
100
AcDbLine
 10
0.0
 20
0.0
 30
0.0
 11
0.0
 21
-2.5
 31
0.0
  0
LINE
  5
DA
330
D4
100
AcDbEntity
  8
FORMAT
 62
     0
100
AcDbLine
 10
0.0
 20
0.0
 30
0.0
 11
2.5
 21
0.0
 31
0.0
  0
LINE
  5
DB
330
D4
100
AcDbEntity
  8
FORMAT
 62
     0
100
AcDbLine
 10
0.0
 20
5.0
 30
0.0
 11
0.0
 21
9.5
 31
0.0
  0
LINE
  5
DC
330
D4
100
AcDbEntity
  8
FORMAT
 62
     0
100
AcDbLine
 10
-5.0
 20
0.0
 30
0.0
 11
-9.5
 21
0.0
 31
0.0
  0
LINE
  5
DD
330
D4
100
AcDbEntity
  8
FORMAT
 62
     0
100
AcDbLine
 10
0.0
 20
-5.0
 30
0.0
 11
0.0
 21
-9.5
 31
0.0
  0
LINE
  5
DE
330
D4
100
AcDbEntity
  8
FORMAT
 62
     0
100
AcDbLine
 10
5.0
 20
0.0
 30
0.0
 11
9.5
 21
0.0
 31
0.0
  0
ENDBLK
  5
D6
330
D4
100
AcDbEntity
  8
0
100
AcDbBlockEnd
  0
ENDSEC
  0
SECTION
  2
ENTITIES
  0
LINE
  5
83
330
1F
100
AcDbEntity
  8
0
  6
Continuous
 62
     7
370
    25
100
AcDbLine
 10
129.1701403815
 20
78.2885084802
 30
0.0
 11
129.1701403815
 21
53.1754170122
 31
0.0
  0
LINE
  5
84
330
1F
100
AcDbEntity
  8
0
  6
Continuous
 62
     7
370
    25
100
AcDbLine
 10
143.1701403815
 20
53.1754170122
 30
0.0
 11
143.1701403815
 21
78.2914167441
 31
0.0
  0
LINE
  5
85
330
1F
100
AcDbEntity
  8
0
  6
Continuous
 62
     7
370
    25
100
AcDbLine
 10
129.1701403815
 20
78.2926796772
 30
0.0
 11
129.1701403815
 21
78.2885084802
 31
0.0
  0
LINE
  5
86
330
1F
100
AcDbEntity
  8
0
  6
Continuous
 62
     7
370
    25
100
AcDbLine
 10
143.1701403815
 20
78.2914167441
 30
0.0
 11
143.1701403815
 21
78.2926796772
 31
0.0
  0
CIRCLE
  5
87
330
1F
100
AcDbEntity
  8
0
  6
Continuous
 62
     7
370
    25
100
AcDbCircle
 10
136.1701403815
 20
117.6754170122
 30
0.0
 40
40.0
  0
CIRCLE
  5
88
330
1F
100
AcDbEntity
  8
0
  6
Continuous
 62
     7
370
    25
100
AcDbCircle
 10
136.1701403815
 20
117.6754170122
 30
0.0
 40
31.5
  0
LINE
  5
89
330
1F
100
AcDbEntity
  8
0
  6
Continuous
 62
     7
370
    25
100
AcDbLine
 10
136.1701403815
 20
53.1754170122
 30
0.0
 11
143.1701403815
 21
53.1754170122
 31
0.0
  0
LINE
  5
8A
330
1F
100
AcDbEntity
  8
0
  6
Continuous
 62
     7
370
    25
100
AcDbLine
 10
129.1701403815
 20
53.1754170122
 30
0.0
 11
136.1701403815
 21
53.1754170122
 31
0.0
  0
CIRCLE
  5
8B
330
1F
100
AcDbEntity
  8
0
  6
Continuous
 62
     7
370
    25
100
AcDbCircle
 10
136.1701403815
 20
117.6754170122
 30
0.0
 40
30.33151952053558
  0
CIRCLE
  5
8C
330
1F
100
AcDbEntity
  8
0
  6
Continuous
 62
     7
370
    25
100
AcDbCircle
 10
136.1701403815
 20
117.6754170122
 30
0.0
 40
17.16848047946441
  0
CIRCLE
  5
8D
330
1F
100
AcDbEntity
  8
0
  6
Continuous
 62
     7
370
    25
100
AcDbCircle
 10
136.1701403815
 20
117.6754170122
 30
0.0
 40
16.0
  0
INSERT
  5
99
330
1F
100
AcDbEntity
  8
FORMAT
 62
     7
100
AcDbBlockReference
  2
SW_CENTERMARKSYMBOL_0
 10
136.1701403815
 20
117.6754170122
 30
0.0
  0
LINE
  5
9A
330
1F
100
AcDbEntity
  8
0
  6
Continuous
 62
     7
370
    25
100
AcDbLine
 10
2.7131482116
 20
157.6754170122
 30
0.0
 11
-48.0020653421
 21
157.6754170122
 31
0.0
  0
LINE
  5
9B
330
1F
100
AcDbEntity
  8
0
  6
Continuous
 62
     7
370
    25
100
AcDbLine
 10
-33.0209002915
 20
77.6754170122
 30
0.0
 11
2.7131482116
 21
77.6754170122
 31
0.0
  0
LINE
  5
9C
330
1F
100
AcDbEntity
  8
0
  6
Continuous
 62
     7
370
    25
100
AcDbLine
 10
-48.0020653421
 20
77.6754170122
 30
0.0
 11
-47.0020653421
 21
77.6754170122
 31
0.0
  0
ARC
  5
9D
330
1F
100
AcDbEntity
  8
0
  6
Continuous
 62
     7
370
    25
100
AcDbCircle
 10
2.7131482116
 20
155.6754170122
 30
0.0
 40
2.0
100
AcDbArc
 50
24.5671713206
 51
90.0
  0
ARC
  5
9E
330
1F
100
AcDbEntity
  8
0
  6
Continuous
 62
     7
370
    25
100
AcDbCircle
 10
2.7131482116
 20
79.6754170122
 30
0.0
 40
2.0
100
AcDbArc
 50
270.0
 51
335.4328286794
  0
LINE
  5
9F
330
1F
100
AcDbEntity
  8
0
  6
Continuous
 62
     7
370
    25
100
AcDbLine
 10
4.5320971628
 20
78.8438974917
 30
0.0
 11
11.463772153
 21
94.0069365328
 31
0.0
  0
LINE
  5
A0
330
1F
100
AcDbEntity
  8
0
  6
Continuous
 62
     7
370
    25
100
AcDbLine
 10
11.463772153
 20
141.3438974917
 30
0.0
 11
4.5320971628
 21
156.5069365328
 31
0.0
  0
ARC
  5
A1
330
1F
100
AcDbEntity
  8
0
  6
Continuous
 62
     7
370
    25
100
AcDbCircle
 10
13.2827211041
 20
142.1754170122
 30
0.0
 40
2.000000000000002
100
AcDbArc
 50
204.5671713206
 51
270.0
  0
ARC
  5
A2
330
1F
100
AcDbEntity
  8
0
  6
Continuous
 62
     7
370
    25
100
AcDbCircle
 10
13.2827211041
 20
93.1754170122
 30
0.0
 40
1.99999999999999
100
AcDbArc
 50
90.0
 51
155.4328286794
  0
LINE
  5
A3
330
1F
100
AcDbEntity
  8
0
  6
Continuous
 62
     7
370
    25
100
AcDbLine
 10
53.9979346579
 20
140.1754170122
 30
0.0
 11
13.2827211041
 21
140.1754170122
 31
0.0
  0
LINE
  5
A4
330
1F
100
AcDbEntity
  8
0
  6
Continuous
 62
     7
370
    25
100
AcDbLine
 10
52.9923205945
 20
95.1754170122
 30
0.0
 11
53.9979346579
 21
95.1754170122
 31
0.0
  0
LINE
  5
A5
330
1F
100
AcDbEntity
  8
0
  6
Continuous
 62
     7
370
    25
100
AcDbLine
 10
13.2827211041
 20
95.1754170122
 30
0.0
 11
38.9979346579
 21
95.1754170122
 31
0.0
  0
LINE
  5
A6
330
1F
100
AcDbEntity
  8
0
  6
Continuous
 62
     7
370
    25
100
AcDbLine
 10
38.9979346579
 20
95.1754170122
 30
0.0
 11
38.9979346579
 21
76.6754170122
 31
0.0
  0
LINE
  5
A7
330
1F
100
AcDbEntity
  8
0
  6
Continuous
 62
     7
370
    25
100
AcDbLine
 10
52.9979346579
 20
76.6754170122
 30
0.0
 11
52.9979346579
 21
95.1771471614
 31
0.0
  0
LINE
  5
A8
330
1F
100
AcDbEntity
  8
0
  6
Continuous
 62
     7
370
    25
100
AcDbLine
 10
-47.0020653421
 20
77.6754170122
 30
0.0
 11
-47.0020653421
 21
53.1754170122
 31
0.0
  0
LINE
  5
A9
330
1F
100
AcDbEntity
  8
0
  6
Continuous
 62
     7
370
    25
100
AcDbLine
 10
-33.0020653421
 20
53.1754170122
 30
0.0
 11
-33.0020653421
 21
77.678699772
 31
0.0
  0
LINE
  5
AA
330
1F
100
AcDbEntity
  8
0
  6
Continuous
 62
     7
370
    25
100
AcDbLine
 10
-48.0020653421
 20
157.6754170122
 30
0.0
 11
-48.0020653421
 21
77.6754170122
 31
0.0
  0
SPLINE
  5
AB
330
1F
100
AcDbEntity
  8
0
  6
Continuous
 62
     7
370
    25
100
AcDbSpline
210
0.0
220
0.0
230
1.0
 70
     8
 71
     3
 72
    26
 73
    22
 74
     0
 42
0.00000001
 43
0.00000001
 40
0.0
 40
0.0
 40
0.0
 40
0.0
 40
0.0142484644275621
 40
0.0682047854705339
 40
0.1202918722527089
 40
0.1738623030885348
 40
0.2264594863351627
 40
0.2805475599452508
 40
0.3337266108351127
 40
0.3884598919559
 40
0.4413831263968198
 40
0.4958835309922007
 40
0.5480923534488621
 40
0.6018209588757731
 40
0.6539787920249513
 40
0.7076114857205102
 40
0.7604510402235319
 40
0.8147999241716332
 40
0.8680009186374209
 40
0.9227729532218942
 40
1.0
 40
1.0
 40
1.0
 40
1.0
 10
-33.02090029154657
 20
77.6787042944389
 30
0.0
 10
-33.01535127201497
 20
77.67773594533998
 30
0.0
 10
-32.98878913343161
 20
77.67310063583774
 30
0.0
 10
-33.13708183030453
 20
77.69907689669745
 30
0.0
 10
-33.46867882095429
 20
77.75513499252541
 30
0.0
 10
-33.99097943414856
 20
77.83809032785878
 30
0.0
 10
-34.68240087583651
 20
77.93742596728337
 30
0.0
 10
-35.52147827758377
 20
78.04206763633478
 30
0.0
 10
-36.49889666882778
 20
78.14161959210757
 30
0.0
 10
-37.57062385124225
 20
78.2229458633441
 30
0.0
 10
-38.72176882772294
 20
78.27764138835649
 30
0.0
 10
-39.89281179256152
 20
78.2984345467078
 30
0.0
 10
-41.07215122412625
 20
78.28382245403338
 30
0.0
 10
-42.20440288469516
 20
78.23634100200366
 30
0.0
 10
-43.28372420134894
 20
78.16066163053952
 30
0.0
 10
-44.26603459908753
 20
78.066125657633
 30
0.0
 10
-45.14133958331774
 20
77.96146120091434
 30
0.0
 10
-45.8716448815858
 20
77.85938017269754
 30
0.0
 10
-46.43899033647614
 20
77.77107902613325
 30
0.0
 10
-46.89574322247098
 20
77.694310653638
 30
0.0
 10
-46.96282099257356
 20
77.682390807247
 30
0.0
 10
-47.00206534212516
 20
77.67541701223782
 30
0.0
  0
LINE
  5
AC
330
1F
100
AcDbEntity
  8
0
  6
Continuous
 62
     7
370
    25
100
AcDbLine
 10
53.9979346579
 20
140.1754170122
 30
0.0
 11
53.9979346579
 21
95.1754170122
 31
0.0
  0
SPLINE
  5
AD
330
1F
100
AcDbEntity
  8
0
  6
Continuous
 62
     7
370
    25
100
AcDbSpline
210
0.0
220
0.0
230
1.0
 70
     8
 71
     3
 72
    27
 73
    23
 74
     0
 42
0.00000001
 43
0.00000001
 40
0.0
 40
0.0
 40
0.0
 40
0.0
 40
0.0033378361936216
 40
0.0564442545328691
 40
0.1067788939559302
 40
0.1585093885303931
 40
0.2100962302960436
 40
0.2630695045693608
 40
0.3166281275167099
 40
0.3717471938415498
 40
0.4250125393914115
 40
0.4799667612705881
 40
0.5308784644456157
 40
0.5833139181775667
 40
0.6335710295955358
 40
0.6851830032710743
 40
0.7373971572398046
 40
0.7910315508923816
 40
0.8448476177024109
 40
0.9002872215112301
 40
0.9494747320075196
 40
1.0
 40
1.0
 40
1.0
 40
1.0
 10
52.99232059448831
 20
95.17715504951447
 30
0.0
 10
52.99417137113789
 20
95.17658212157248
 30
0.0
 10
53.02546880523377
 20
95.1668936621305
 30
0.0
 10
52.90865595041468
 20
95.20329990825755
 30
0.0
 10
52.63239095428226
 20
95.28731225162888
 30
0.0
 10
52.16903997161319
 20
95.42140138469934
 30
0.0
 10
51.54268001987759
 20
95.58828723715294
 30
0.0
 10
50.76011688216325
 20
95.77347970875383
 30
0.0
 10
49.82722001835558
 20
95.95927214936584
 30
0.0
 10
48.77934485270303
 20
96.12107605521425
 30
0.0
 10
47.63730623204205
 20
96.23978257356879
 30
0.0
 10
46.47286600627273
 20
96.2975083402934
 30
0.0
 10
45.30117429188149
 20
96.29083952255993
 30
0.0
 10
44.18404285034164
 20
96.22451740261035
 30
0.0
 10
43.11426400766042
 20
96.10641983011317
 30
0.0
 10
42.1241510539123
 20
95.9506871429391
 30
0.0
 10
41.21797859026702
 20
95.76952666111296
 30
0.0
 10
40.43028393251358
 20
95.58272002457302
 30
0.0
 10
39.78207827442814
 20
95.40905367194199
 30
0.0
 10
39.32854849402757
 20
95.27692552875652
 30
0.0
 10
39.04914073036736
 20
95.19144176407299
 30
0.0
 10
39.01515533263813
 20
95.18080615899491
 30
0.0
 10
38.99793465787484
 20
95.17541701223782
 30
0.0
  0
LINE
  5
AE
330
1F
100
AcDbEntity
  8
0
  6
Continuous
 62
     7
370
    25
100
AcDbLine
 10
38.9979346579
 20
76.6754170122
 30
0.0
 11
52.9979346579
 21
76.6754170122
 31
0.0
  0
LINE
  5
AF
330
1F
100
AcDbEntity
  8
0
  6
Continuous
 62
     7
370
    25
100
AcDbLine
 10
-47.0020653421
 20
53.1754170122
 30
0.0
 11
-33.0020653421
 21
53.1754170122
 31
0.0
  0
LINE
  5
B0
330
1F
100
AcDbEntity
  8
0
  6
Continuous
 62
     1
370
    25
100
AcDbLine
 10
2.7131482116
 20
157.6754170122
 30
0.0
 11
2.7131482116
 21
77.6754170122
 31
0.0
  0
LINE
  5
B1
330
1F
100
AcDbEntity
  8
0
  6
Continuous
 62
     1
370
    25
100
AcDbLine
 10
4.5320971628
 20
156.5069365328
 30
0.0
 11
4.5320971628
 21
78.8438974917
 31
0.0
  0
LINE
  5
B2
330
1F
100
AcDbEntity
  8
0
  6
Continuous
 62
     1
370
    25
100
AcDbLine
 10
11.463772153
 20
141.3438974917
 30
0.0
 11
11.463772153
 21
94.0069365328
 31
0.0
  0
LINE
  5
B3
330
1F
100
AcDbEntity
  8
0
  6
Continuous
 62
     1
370
    25
100
AcDbLine
 10
13.2827211041
 20
140.1754170122
 30
0.0
 11
13.2827211041
 21
95.1754170122
 31
0.0
  0
LINE
  5
B4
330
1F
100
AcDbEntity
  8
0
  6
Continuous
 62
     7
370
    25
100
AcDbLine
 10
176.1701403815
 20
236.0363116197
 30
0.0
 11
176.1701403815
 21
286.7515251735
 31
0.0
  0
LINE
  5
B5
330
1F
100
AcDbEntity
  8
0
  6
Continuous
 62
     7
370
    25
100
AcDbLine
 10
96.1701403815
 20
286.7515251735
 30
0.0
 11
96.1701403815
 21
236.0363116197
 31
0.0
  0
ARC
  5
B6
330
1F
100
AcDbEntity
  8
0
  6
Continuous
 62
     7
370
    25
100
AcDbCircle
 10
174.1701403815
 20
236.0363116197
 30
0.0
 40
2.0
100
AcDbArc
 50
294.5671713206
 51
0.0
  0
ARC
  5
B7
330
1F
100
AcDbEntity
  8
0
  6
Continuous
 62
     7
370
    25
100
AcDbCircle
 10
98.1701403815
 20
236.0363116197
 30
0.0
 40
2.000000000000014
100
AcDbArc
 50
180.0
 51
245.4328286794
  0
LINE
  5
B8
330
1F
100
AcDbEntity
  8
0
  6
Continuous
 62
     7
370
    25
100
AcDbLine
 10
97.338620861
 20
234.2173626686
 30
0.0
 11
112.501659902
 21
227.2856876784
 31
0.0
  0
LINE
  5
B9
330
1F
100
AcDbEntity
  8
0
  6
Continuous
 62
     7
370
    25
100
AcDbLine
 10
159.838620861
 20
227.2856876784
 30
0.0
 11
175.001659902
 21
234.2173626686
 31
0.0
  0
ARC
  5
BA
330
1F
100
AcDbEntity
  8
0
  6
Continuous
 62
     7
370
    25
100
AcDbCircle
 10
160.6701403815
 20
225.4667387272
 30
0.0
 40
2.000000000000026
100
AcDbArc
 50
114.5671713206
 51
180.0
  0
ARC
  5
BB
330
1F
100
AcDbEntity
  8
0
  6
Continuous
 62
     7
370
    25
100
AcDbCircle
 10
111.6701403815
 20
225.4667387272
 30
0.0
 40
2.000000000000014
100
AcDbArc
 50
0.0
 51
65.4328286794
  0
LINE
  5
BC
330
1F
100
AcDbEntity
  8
0
  6
Continuous
 62
     7
370
    25
100
AcDbLine
 10
158.6701403815
 20
184.7515251735
 30
0.0
 11
158.6701403815
 21
225.4667387272
 31
0.0
  0
LINE
  5
BD
330
1F
100
AcDbEntity
  8
0
  6
Continuous
 62
     7
370
    25
100
AcDbLine
 10
113.6701403815
 20
225.4667387272
 30
0.0
 11
113.6701403815
 21
184.7515251735
 31
0.0
  0
CIRCLE
  5
BE
330
1F
100
AcDbEntity
  8
0
  6
Continuous
 62
     7
370
    25
100
AcDbCircle
 10
136.1701403815
 20
278.7515251735
 30
0.0
 40
7.0
  0
CIRCLE
  5
BF
330
1F
100
AcDbEntity
  8
0
  6
Continuous
 62
     7
370
    25
100
AcDbCircle
 10
136.1701403815
 20
278.7515251735
 30
0.0
 40
5.0
  0
CIRCLE
  5
C0
330
1F
100
AcDbEntity
  8
0
  6
Continuous
 62
     7
370
    25
100
AcDbCircle
 10
136.1701403815
 20
192.7515251735
 30
0.0
 40
7.0
  0
CIRCLE
  5
C1
330
1F
100
AcDbEntity
  8
0
  6
Continuous
 62
     7
370
    25
100
AcDbCircle
 10
136.1701403815
 20
192.7515251735
 30
0.0
 40
5.0
  0
LINE
  5
C2
330
1F
100
AcDbEntity
  8
0
  6
Continuous
 62
     7
370
    25
100
AcDbLine
 10
176.1701403815
 20
286.7515251735
 30
0.0
 11
96.1701403815
 21
286.7515251735
 31
0.0
  0
LINE
  5
C3
330
1F
100
AcDbEntity
  8
0
  6
Continuous
 62
     7
370
    25
100
AcDbLine
 10
158.6701403815
 20
184.7515251735
 30
0.0
 11
113.6701403815
 21
184.7515251735
 31
0.0
  0
LINE
  5
C4
330
1F
100
AcDbEntity
  8
0
  6
Continuous
 62
     1
370
    25
100
AcDbLine
 10
176.1701403815
 20
236.0363116197
 30
0.0
 11
96.1701403815
 21
236.0363116197
 31
0.0
  0
LINE
  5
C5
330
1F
100
AcDbEntity
  8
0
  6
Continuous
 62
     1
370
    25
100
AcDbLine
 10
175.001659902
 20
234.2173626686
 30
0.0
 11
97.338620861
 21
234.2173626686
 31
0.0
  0
LINE
  5
C6
330
1F
100
AcDbEntity
  8
0
  6
Continuous
 62
     1
370
    25
100
AcDbLine
 10
159.838620861
 20
227.2856876784
 30
0.0
 11
112.501659902
 21
227.2856876784
 31
0.0
  0
LINE
  5
C7
330
1F
100
AcDbEntity
  8
0
  6
Continuous
 62
     1
370
    25
100
AcDbLine
 10
158.6701403815
 20
225.4667387272
 30
0.0
 11
113.6701403815
 21
225.4667387272
 31
0.0
  0
INSERT
  5
D3
330
1F
100
AcDbEntity
  8
FORMAT
 62
     7
100
AcDbBlockReference
  2
SW_CENTERMARKSYMBOL_1
 10
136.1701403815
 20
192.7515251735
 30
0.0
  0
INSERT
  5
DF
330
1F
100
AcDbEntity
  8
FORMAT
 62
     7
100
AcDbBlockReference
  2
SW_CENTERMARKSYMBOL_2
 10
136.1701403815
 20
278.7515251735
 30
0.0
  0
LINE
  5
E0
330
1F
100
AcDbEntity
  8
0
  6
Continuous
 62
     7
370
    25
100
AcDbLine
 10
320.4242352586
 20
77.6754170122
 30
0.0
 11
321.4242352586
 21
77.6754170122
 31
0.0
  0
LINE
  5
E1
330
1F
100
AcDbEntity
  8
0
  6
Continuous
 62
     7
370
    25
100
AcDbLine
 10
270.7090217049
 20
77.6754170122
 30
0.0
 11
306.4430702081
 21
77.6754170122
 31
0.0
  0
LINE
  5
E2
330
1F
100
AcDbEntity
  8
0
  6
Continuous
 62
     7
370
    25
100
AcDbLine
 10
321.4242352586
 20
157.6754170122
 30
0.0
 11
270.7090217049
 21
157.6754170122
 31
0.0
  0
ARC
  5
E3
330
1F
100
AcDbEntity
  8
0
  6
Continuous
 62
     7
370
    25
100
AcDbCircle
 10
270.7090217049
 20
79.6754170122
 30
0.0
 40
2.0
100
AcDbArc
 50
204.5671713206
 51
270.0
  0
ARC
  5
E4
330
1F
100
AcDbEntity
  8
0
  6
Continuous
 62
     7
370
    25
100
AcDbCircle
 10
270.7090217049
 20
155.6754170122
 30
0.0
 40
2.0
100
AcDbArc
 50
90.0
 51
155.4328286794
  0
LINE
  5
E5
330
1F
100
AcDbEntity
  8
0
  6
Continuous
 62
     7
370
    25
100
AcDbLine
 10
268.8900727537
 20
156.5069365328
 30
0.0
 11
261.9583977635
 21
141.3438974917
 31
0.0
  0
LINE
  5
E6
330
1F
100
AcDbEntity
  8
0
  6
Continuous
 62
     7
370
    25
100
AcDbLine
 10
261.9583977635
 20
94.0069365328
 30
0.0
 11
268.8900727537
 21
78.8438974917
 31
0.0
  0
ARC
  5
E7
330
1F
100
AcDbEntity
  8
0
  6
Continuous
 62
     7
370
    25
100
AcDbCircle
 10
260.1394488124
 20
93.1754170122
 30
0.0
 40
1.999999999999988
100
AcDbArc
 50
24.5671713206
 51
90.0
  0
ARC
  5
E8
330
1F
100
AcDbEntity
  8
0
  6
Continuous
 62
     7
370
    25
100
AcDbCircle
 10
260.1394488124
 20
142.1754170122
 30
0.0
 40
2.0
100
AcDbArc
 50
270.0
 51
335.4328286794
  0
LINE
  5
E9
330
1F
100
AcDbEntity
  8
0
  6
Continuous
 62
     7
370
    25
100
AcDbLine
 10
234.4242352586
 20
95.1754170122
 30
0.0
 11
260.1394488124
 21
95.1754170122
 31
0.0
  0
LINE
  5
EA
330
1F
100
AcDbEntity
  8
0
  6
Continuous
 62
     7
370
    25
100
AcDbLine
 10
219.4242352586
 20
95.1754170122
 30
0.0
 11
220.429849322
 21
95.1754170122
 31
0.0
  0
LINE
  5
EB
330
1F
100
AcDbEntity
  8
0
  6
Continuous
 62
     7
370
    25
100
AcDbLine
 10
260.1394488124
 20
140.1754170122
 30
0.0
 11
219.4242352586
 21
140.1754170122
 31
0.0
  0
LINE
  5
EC
330
1F
100
AcDbEntity
  8
0
  6
Continuous
 62
     7
370
    25
100
AcDbLine
 10
220.4242352586
 20
95.1771471614
 30
0.0
 11
220.4242352586
 21
76.6754170122
 31
0.0
  0
LINE
  5
ED
330
1F
100
AcDbEntity
  8
0
  6
Continuous
 62
     7
370
    25
100
AcDbLine
 10
234.4242352586
 20
76.6754170122
 30
0.0
 11
234.4242352586
 21
95.1754170122
 31
0.0
  0
LINE
  5
EE
330
1F
100
AcDbEntity
  8
0
  6
Continuous
 62
     7
370
    25
100
AcDbLine
 10
306.4242352586
 20
77.678699772
 30
0.0
 11
306.4242352586
 21
53.1754170122
 31
0.0
  0
LINE
  5
EF
330
1F
100
AcDbEntity
  8
0
  6
Continuous
 62
     7
370
    25
100
AcDbLine
 10
320.4242352586
 20
53.1754170122
 30
0.0
 11
320.4242352586
 21
77.6754170122
 31
0.0
  0
LINE
  5
F0
330
1F
100
AcDbEntity
  8
0
  6
Continuous
 62
     7
370
    25
100
AcDbLine
 10
321.4242352586
 20
117.6754170122
 30
0.0
 11
321.4242352586
 21
157.6754170122
 31
0.0
  0
LINE
  5
F1
330
1F
100
AcDbEntity
  8
0
  6
Continuous
 62
     7
370
    25
100
AcDbLine
 10
321.4242352586
 20
77.6754170122
 30
0.0
 11
321.4242352586
 21
117.6754170122
 31
0.0
  0
SPLINE
  5
F2
330
1F
100
AcDbEntity
  8
0
  6
Continuous
 62
     7
370
    25
100
AcDbSpline
210
0.0
220
0.0
230
1.0
 70
     8
 71
     3
 72
    26
 73
    22
 74
     0
 42
0.00000001
 43
0.00000001
 40
0.0
 40
0.0
 40
0.0
 40
0.0
 40
0.0523744685937201
 40
0.1062818262333995
 40
0.1586523694408185
 40
0.2125152249020938
 40
0.265374466437588
 40
0.3197450442193738
 40
0.3729395875070171
 40
0.4277066401178667
 40
0.4803558846474328
 40
0.534567502367916
 40
0.5866393909786175
 40
0.6402072654921827
 40
0.6925696019047068
 40
0.7464103371621768
 40
0.7994741393026451
 40
0.854072288161584
 40
0.9071646812192988
 40
0.9618359470163518
 40
1.0
 40
1.0
 40
1.0
 40
1.0
 10
320.424235258633
 20
77.67541701223782
 30
0.0
 10
320.4058516727875
 20
77.6786550438355
 30
0.0
 10
320.3685464527283
 20
77.68522587731303
 30
0.0
 10
320.0686708073414
 20
77.7367112036472
 30
0.0
 10
319.5950003071265
 20
77.81341903056813
 30
0.0
 10
318.9503275067534
 20
77.90903961271285
 30
0.0
 10
318.1439458663106
 20
78.01403116519101
 30
0.0
 10
317.2073612894368
 20
78.11557107858545
 30
0.0
 10
316.1509332978437
 20
78.20346453111328
 30
0.0
 10
315.026058982643
 20
78.26577713683231
 30
0.0
 10
313.8477388759031
 20
78.29630211512807
 30
0.0
 10
312.6762308526467
 20
78.29136092524092
 30
0.0
 10
311.5203020483736
 20
78.252020825434
 30
0.0
 10
310.4308441807144
 20
78.18376926923251
 30
0.0
 10
309.4141150005561
 20
78.09290387448982
 30
0.0
 10
308.5118565484715
 20
77.990407777997
 30
0.0
 10
307.7362780829967
 20
77.88605518363094
 30
0.0
 10
307.1225798749316
 20
77.79278716568275
 30
0.0
 10
306.6897324343872
 20
77.72150344781691
 30
0.0
 10
306.4510146684324
 20
77.68012142422592
 30
0.0
 10
306.4453846680606
 20
77.67911714692475
 30
0.0
 10
306.4430702080544
 20
77.6787042944389
 30
0.0
  0
LINE
  5
F3
330
1F
100
AcDbEntity
  8
0
  6
Continuous
 62
     7
370
    25
100
AcDbLine
 10
219.4242352586
 20
117.6754170122
 30
0.0
 11
219.4242352586
 21
140.1754170122
 31
0.0
  0
LINE
  5
F4
330
1F
100
AcDbEntity
  8
0
  6
Continuous
 62
     7
370
    25
100
AcDbLine
 10
219.4242352586
 20
95.1754170122
 30
0.0
 11
219.4242352586
 21
117.6754170122
 31
0.0
  0
SPLINE
  5
F5
330
1F
100
AcDbEntity
  8
0
  6
Continuous
 62
     7
370
    25
100
AcDbSpline
210
0.0
220
0.0
230
1.0
 70
     8
 71
     3
 72
    26
 73
    22
 74
     0
 42
0.00000001
 43
0.00000001
 40
0.0
 40
0.0
 40
0.0
 40
0.0
 40
0.0512101165004864
 40
0.1039476652871191
 40
0.1551465063566326
 40
0.2077559126601828
 40
0.2603759890400034
 40
0.3144482543807221
 40
0.3682712025197163
 40
0.4237460256398496
 40
0.4759286360254731
 40
0.5297504535878506
 40
0.5799643409954123
 40
0.6315982167818648
 40
0.6825921691121327
 40
0.7349423201959415
 40
0.7881950124741445
 40
0.842964471159464
 40
0.8965456794694808
 40
0.9518022711901456
 40
1.0
 40
1.0
 40
1.0
 40
1.0
 10
234.424235258633
 20
95.17541701223782
 30
0.0
 10
234.4064947129432
 20
95.18096848268054
 30
0.0
 10
234.3704844784154
 20
95.19223700598931
 30
0.0
 10
234.0815714295481
 20
95.2805908818269
 30
0.0
 10
233.6268818501952
 20
95.41251847158499
 30
0.0
 10
233.0063532451439
 20
95.57888092758162
 30
0.0
 10
232.2252879190655
 20
95.76491043278966
 30
0.0
 10
231.3042616653223
 20
95.95009532399854
 30
0.0
 10
230.2528868423957
 20
96.1149722781197
 30
0.0
 10
229.1262685418346
 20
96.23477513511901
 30
0.0
 10
227.9473016369924
 20
96.29638061034176
 30
0.0
 10
226.7900276880366
 20
96.29293345526698
 30
0.0
 10
225.6570006737312
 20
96.22832277766724
 30
0.0
 10
224.5936371858708
 20
96.11361937184253
 30
0.0
 10
223.5939154741322
 20
95.95841229946893
 30
0.0
 10
222.6870333797788
 20
95.77886857685029
 30
0.0
 10
221.8888866061597
 20
95.59097291829879
 30
0.0
 10
221.2382337130751
 20
95.41737004035356
 30
0.0
 10
220.7609352240729
 20
95.27889705799026
 30
0.0
 10
220.472318189347
 20
95.19045358375402
 30
0.0
 10
220.4433466862768
 20
95.18138156112202
 30
0.0
 10
220.4298493220195
 20
95.17715504951447
 30
0.0
  0
LINE
  5
F6
330
1F
100
AcDbEntity
  8
0
  6
Continuous
 62
     7
370
    25
100
AcDbLine
 10
220.4242352586
 20
76.6754170122
 30
0.0
 11
234.4242352586
 21
76.6754170122
 31
0.0
  0
LINE
  5
F7
330
1F
100
AcDbEntity
  8
0
  6
Continuous
 62
     7
370
    25
100
AcDbLine
 10
306.4242352586
 20
53.1754170122
 30
0.0
 11
320.4242352586
 21
53.1754170122
 31
0.0
  0
LINE
  5
F8
330
1F
100
AcDbEntity
  8
0
  6
Continuous
 62
     1
370
    25
100
AcDbLine
 10
270.7090217049
 20
117.6754170122
 30
0.0
 11
270.7090217049
 21
157.6754170122
 31
0.0
  0
LINE
  5
F9
330
1F
100
AcDbEntity
  8
0
  6
Continuous
 62
     1
370
    25
100
AcDbLine
 10
270.7090217049
 20
77.6754170122
 30
0.0
 11
270.7090217049
 21
117.6754170122
 31
0.0
  0
LINE
  5
FA
330
1F
100
AcDbEntity
  8
0
  6
Continuous
 62
     1
370
    25
100
AcDbLine
 10
268.8900727537
 20
117.6754170122
 30
0.0
 11
268.8900727537
 21
156.5069365328
 31
0.0
  0
LINE
  5
FB
330
1F
100
AcDbEntity
  8
0
  6
Continuous
 62
     1
370
    25
100
AcDbLine
 10
268.8900727537
 20
78.8438974917
 30
0.0
 11
268.8900727537
 21
117.6754170122
 31
0.0
  0
LINE
  5
FC
330
1F
100
AcDbEntity
  8
0
  6
Continuous
 62
     1
370
    25
100
AcDbLine
 10
261.9583977635
 20
117.6754170122
 30
0.0
 11
261.9583977635
 21
141.3438974917
 31
0.0
  0
LINE
  5
FD
330
1F
100
AcDbEntity
  8
0
  6
Continuous
 62
     1
370
    25
100
AcDbLine
 10
261.9583977635
 20
94.0069365328
 30
0.0
 11
261.9583977635
 21
117.6754170122
 31
0.0
  0
LINE
  5
FE
330
1F
100
AcDbEntity
  8
0
  6
Continuous
 62
     1
370
    25
100
AcDbLine
 10
260.1394488124
 20
117.6754170122
 30
0.0
 11
260.1394488124
 21
140.1754170122
 31
0.0
  0
LINE
  5
FF
330
1F
100
AcDbEntity
  8
0
  6
Continuous
 62
     1
370
    25
100
AcDbLine
 10
260.1394488124
 20
95.1754170122
 30
0.0
 11
260.1394488124
 21
117.6754170122
 31
0.0
  0
LINE
  5
100
330
1F
100
AcDbEntity
  8
0
  6
Continuous
 62
     7
370
    25
100
AcDbLine
 10
96.1701403815
 20
-13.6429077943
 30
0.0
 11
96.1701403815
 21
-64.358121348
 31
0.0
  0
LINE
  5
101
330
1F
100
AcDbEntity
  8
0
  6
Continuous
 62
     7
370
    25
100
AcDbLine
 10
176.1701403815
 20
-64.358121348
 30
0.0
 11
176.1701403815
 21
-13.6429077943
 31
0.0
  0
ARC
  5
102
330
1F
100
AcDbEntity
  8
0
  6
Continuous
 62
     7
370
    25
100
AcDbCircle
 10
98.1701403815
 20
-13.6429077943
 30
0.0
 40
2.000000000000014
100
AcDbArc
 50
114.5671713206
 51
180.0
  0
ARC
  5
103
330
1F
100
AcDbEntity
  8
0
  6
Continuous
 62
     7
370
    25
100
AcDbCircle
 10
174.1701403815
 20
-13.6429077943
 30
0.0
 40
2.0
100
AcDbArc
 50
0.0
 51
65.4328286794
  0
LINE
  5
104
330
1F
100
AcDbEntity
  8
0
  6
Continuous
 62
     7
370
    25
100
AcDbLine
 10
175.001659902
 20
-11.8239588431
 30
0.0
 11
159.838620861
 21
-4.8922838529
 31
0.0
  0
LINE
  5
105
330
1F
100
AcDbEntity
  8
0
  6
Continuous
 62
     7
370
    25
100
AcDbLine
 10
112.501659902
 20
-4.8922838529
 30
0.0
 11
97.338620861
 21
-11.8239588431
 31
0.0
  0
ARC
  5
106
330
1F
100
AcDbEntity
  8
0
  6
Continuous
 62
     7
370
    25
100
AcDbCircle
 10
111.6701403815
 20
-3.0733349017
 30
0.0
 40
2.0
100
AcDbArc
 50
294.5671713206
 51
0.0
  0
ARC
  5
107
330
1F
100
AcDbEntity
  8
0
  6
Continuous
 62
     7
370
    25
100
AcDbCircle
 10
160.6701403815
 20
-3.0733349017
 30
0.0
 40
2.000000000000003
100
AcDbArc
 50
180.0
 51
245.4328286794
  0
LINE
  5
108
330
1F
100
AcDbEntity
  8
0
  6
Continuous
 62
     7
370
    25
100
AcDbLine
 10
113.6701403815
 20
37.641878652
 30
0.0
 11
113.6701403815
 21
-3.0733349017
 31
0.0
  0
LINE
  5
109
330
1F
100
AcDbEntity
  8
0
  6
Continuous
 62
     7
370
    25
100
AcDbLine
 10
158.6701403815
 20
-3.0733349017
 30
0.0
 11
158.6701403815
 21
37.641878652
 31
0.0
  0
LINE
  5
10A
330
1F
100
AcDbEntity
  8
0
  6
Continuous
 62
     7
370
    25
100
AcDbLine
 10
96.1701403815
 20
-64.358121348
 30
0.0
 11
176.1701403815
 21
-64.358121348
 31
0.0
  0
LINE
  5
10B
330
1F
100
AcDbEntity
  8
0
  6
Continuous
 62
     7
370
    25
100
AcDbLine
 10
113.6701403815
 20
37.641878652
 30
0.0
 11
158.6701403815
 21
37.641878652
 31
0.0
  0
LINE
  5
10C
330
1F
100
AcDbEntity
  8
0
  6
Continuous
 62
     1
370
    25
100
AcDbLine
 10
96.1701403815
 20
-13.6429077943
 30
0.0
 11
176.1701403815
 21
-13.6429077943
 31
0.0
  0
LINE
  5
10D
330
1F
100
AcDbEntity
  8
0
  6
Continuous
 62
     1
370
    25
100
AcDbLine
 10
97.338620861
 20
-11.8239588431
 30
0.0
 11
175.001659902
 21
-11.8239588431
 31
0.0
  0
LINE
  5
10E
330
1F
100
AcDbEntity
  8
0
  6
Continuous
 62
     1
370
    25
100
AcDbLine
 10
112.501659902
 20
-4.8922838529
 30
0.0
 11
159.838620861
 21
-4.8922838529
 31
0.0
  0
LINE
  5
10F
330
1F
100
AcDbEntity
  8
0
  6
Continuous
 62
     1
370
    25
100
AcDbLine
 10
113.6701403815
 20
-3.0733349017
 30
0.0
 11
158.6701403815
 21
-3.0733349017
 31
0.0
  0
LINE
  5
110
330
1F
100
AcDbEntity
  8
0
  6
Continuous
 62
     7
370
    25
100
AcDbLine
 10
292.0662528433
 20
27.0737660418
 30
0.0
 11
256.2051814301
 21
47.7759219108
 31
0.0
  0
LINE
  5
111
330
1F
100
AcDbEntity
  8
0
  6
Continuous
 62
     7
370
    25
100
AcDbLine
 10
216.2084321247
 20
-21.5079870796
 30
0.0
 11
234.8636610269
 21
-32.277421491
 31
0.0
  0
LINE
  5
112
330
1F
100
AcDbEntity
  8
0
  6
Continuous
 62
     7
370
    25
100
AcDbLine
 10
248.8636610269
 20
-40.3594494602
 30
0.0
 11
252.0695035379
 21
-42.2101429487
 31
0.0
  0
LINE
  5
113
330
1F
100
AcDbEntity
  8
0
  6
Continuous
 62
     7
370
    25
100
AcDbLine
 10
234.8636610269
 20
-22.5421027308
 30
0.0
 11
234.8636610269
 21
-42.7985473983
 31
0.0
  0
LINE
  5
114
330
1F
100
AcDbEntity
  8
0
  6
Continuous
 62
     7
370
    25
100
AcDbLine
 10
248.8636610269
 20
-42.7985473983
 30
0.0
 11
248.8636610269
 21
-22.5422863045
 31
0.0
  0
SPLINE
  5
115
330
1F
100
AcDbEntity
  8
0
  6
Continuous
 62
     7
370
    25
100
AcDbSpline
210
0.0
220
0.0
230
1.0
 70
     8
 71
     3
 72
    69
 73
    65
 74
     0
 42
0.00000001
 43
0.00000001
 40
0.0
 40
0.0
 40
0.0
 40
0.0
 40
0.0132791422791824
 40
0.0288853909548623
 40
0.0445096176899175
 40
0.0601790688804497
 40
0.0759165632644548
 40
0.0917387010904333
 40
0.1076548651647043
 40
0.1236671288093128
 40
0.1397710415864015
 40
0.1559570987141948
 40
0.1722125720955463
 40
0.1885233439028307
 40
0.2048754501096064
 40
0.2212561736869387
 40
0.2376546652266226
 40
0.2540621663406513
 40
0.2704710978161244
 40
0.286876137434374
 40
0.303274353334605
 40
0.3196639457797539
 40
0.336043986672686
 40
0.352414201733493
 40
0.3687747962504057
 40
0.3851263201398186
 40
0.4014695661369631
 40
0.4178054947085194
 40
0.4341351798627419
 40
0.4504597709202631
 40
0.4667804662262501
 40
0.4830984956031313
 40
0.4994151090129497
 40
0.5157315694104186
 40
0.5320489288475632
 40
0.5483682595464027
 40
0.5646908405499421
 40
0.581017948649251
 40
0.5973508510766179
 40
0.613690793943293
 40
0.6300389842921621
 40
0.6463965631335075
 40
0.6627645661160816
 40
0.6791438676025242
 40
0.6955351029079604
 40
0.7119385624414805
 40
0.7283540507208457
 40
0.7447807032104915
 40
0.7612167555325144
 40
0.7776592642032469
 40
0.7941027326325831
 40
0.8105394193237822
 40
0.8269601898814265
 40
0.8433536112803205
 40
0.8597061379386908
 40
0.8760027290051554
 40
0.8922279982719713
 40
0.9083678918367994
 40
0.9244117215701178
 40
0.9403542088788142
 40
0.9561970975407973
 40
0.9719499407464133
 40
0.9876298485021693
 40
1.0
 40
1.0
 40
1.0
 40
1.0
 10
252.1616347366264
 20
-42.25538849431555
 30
0.0
 10
252.4663868803786
 20
-42.42329293816763
 30
0.0
 10
253.1292975286377
 20
-42.78852627943016
 30
0.0
 10
254.2091778666783
 20
-43.24168370673622
 30
0.0
 10
255.3847236850964
 20
-43.63568800816734
 30
0.0
 10
256.6033785453259
 20
-43.93455650040021
 30
0.0
 10
257.8610469105792
 20
-44.14061278176584
 30
0.0
 10
259.1556988475473
 20
-44.25223177312128
 30
0.0
 10
260.4844333027583
 20
-44.26889143303685
 30
0.0
 10
261.8441624261902
 20
-44.18994642525975
 30
0.0
 10
263.2313893159185
 20
-44.01510647474347
 30
0.0
 10
264.6423031709536
 20
-43.74443452731098
 30
0.0
 10
266.0728467851298
 20
-43.3784306591849
 30
0.0
 10
267.5188231140269
 20
-42.91803887930902
 30
0.0
 10
268.9759937806996
 20
-42.3646256686504
 30
0.0
 10
270.4401594291868
 20
-41.71993204264709
 30
0.0
 10
271.9072128018548
 20
-40.9860168750067
 30
0.0
 10
273.3731403946198
 20
-40.16521653362678
 30
0.0
 10
274.8340428958778
 20
-39.26009930672464
 30
0.0
 10
276.2861559762874
 20
-38.27341711287625
 30
0.0
 10
277.7258605661269
 20
-37.2080587050441
 30
0.0
 10
279.1496526742179
 20
-36.06703730954757
 30
0.0
 10
280.5541036060724
 20
-34.85350124810736
 30
0.0
 10
281.9358522788534
 20
-33.57072972860178
 30
0.0
 10
283.2916010632414
 20
-32.22212993370612
 30
0.0
 10
284.6181147747558
 20
-30.81123430428811
 30
0.0
 10
285.9122222481541
 20
-29.3416973325779
 30
0.0
 10
287.1708198943381
 20
-27.81729148504853
 30
0.0
 10
288.3908766848676
 20
-26.24190208224898
 30
0.0
 10
289.5694400861766
 20
-24.6195210964996
 30
0.0
 10
290.7036425483788
 20
-22.95423991016393
 30
0.0
 10
291.7907082296156
 20
-21.25024112429828
 30
0.0
 10
292.8279597000208
 20
-19.51178953555289
 30
0.0
 10
293.8128200118344
 20
-17.74323033068112
 30
0.0
 10
294.742820430005
 20
-15.94897888158804
 30
0.0
 10
295.6156111348483
 20
-14.13350261585744
 30
0.0
 10
296.4289696515211
 20
-12.30130119000261
 30
0.0
 10
297.1808034859537
 20
-10.45689532076875
 30
0.0
 10
297.8691496473061
 20
-8.604823248516029
 30
0.0
 10
298.4921772123532
 20
-6.749630014731719
 30
0.0
 10
299.0481890255201
 20
-4.895857304979875
 30
0.0
 10
299.5356225501734
 20
-3.048034176383106
 30
0.0
 10
299.9530499521367
 20
-1.21066904744542
 30
0.0
 10
300.2991775916799
 20
0.6117566029675593
 30
0.0
 10
300.5728452406285
 20
2.414792313759441
 30
0.0
 10
300.7730255415734
 20
4.194019935450485
 30
0.0
 10
300.8988245011124
 20
5.945051581534601
 30
0.0
 10
300.9494841656209
 20
7.66352378886594
 30
0.0
 10
300.9243890549089
 20
9.345087727448835
 30
0.0
 10
300.8230805332442
 20
10.98536082635957
 30
0.0
 10
300.6452876201743
 20
12.57990338624347
 30
0.0
 10
300.3909665254542
 20
14.12423634369194
 30
0.0
 10
300.0603400471925
 20
15.61386965454726
 30
0.0
 10
299.6539433893907
 20
17.04432137056207
 30
0.0
 10
299.1726848888849
 20
18.41112864855433
 30
0.0
 10
298.6178963545066
 20
19.70991111099966
 30
0.0
 10
297.9913695473302
 20
20.93647394661684
 30
0.0
 10
297.2953354423383
 20
22.08689296883856
 30
0.0
 10
296.5324804241459
 20
23.15774338820758
 30
0.0
 10
295.7056099626496
 20
24.14577821155771
 30
0.0
 10
294.818408312841
 20
25.04950559579515
 30
0.0
 10
293.8720032505708
 20
25.86350389552589
 30
0.0
 10
292.9459560913115
 20
26.54836110748699
 30
0.0
 10
292.3118177204335
 20
26.91979524217531
 30
0.0
 10
292.0321609950259
 20
27.0835986935699
 30
0.0
  0
LINE
  5
116
330
1F
100
AcDbEntity
  8
0
  6
Continuous
 62
     7
370
    25
100
AcDbLine
 10
319.5807842006
 20
-9.0167468838
 30
0.0
 11
300.4981729567
 21
1.9994101018
 31
0.0
  0
LINE
  5
117
330
1F
100
AcDbEntity
  8
0
  6
Continuous
 62
     7
370
    25
100
AcDbLine
 10
278.0006238773
 20
-36.973148012
 30
0.0
 11
295.674844209
 21
-47.1762582302
 31
0.0
  0
LINE
  5
118
330
1F
100
AcDbEntity
  8
0
  6
Continuous
 62
     7
370
    25
100
AcDbLine
 10
295.674844209
 20
-43.158894803
 30
0.0
 11
295.674844209
 21
-58.7153871274
 31
0.0
  0
LINE
  5
119
330
1F
100
AcDbEntity
  8
0
  6
Continuous
 62
     7
370
    25
100
AcDbLine
 10
309.674844209
 20
-58.7153871274
 30
0.0
 11
309.674844209
 21
-43.1588951922
 31
0.0
  0
LINE
  5
11A
330
1F
100
AcDbEntity
  8
0
  6
Continuous
 62
     7
370
    25
100
AcDbLine
 10
252.1503154902
 20
-42.2564192381
 30
0.0
 11
252.0695035379
 21
-42.2101429487
 31
0.0
  0
LWPOLYLINE
  5
11B
330
1F
100
AcDbEntity
  8
0
  6
Continuous
 62
     7
370
    25
100
AcDbPolyline
 90
      118
 70
   128
 43
0.0
 10
207.92253553
 20
-3.1941948209
 10
207.963310968
 20
-1.4174893097
 10
208.0855197158
 20
0.4011718182
 10
208.2888094141
 20
2.256544892
 10
208.5725939259
 20
4.1432803907
 10
208.9360550272
 20
6.0559383676
 10
209.3781447653
 20
7.9890041346
 10
209.8975884812
 20
9.9369041625
 10
210.4928884841
 20
11.8940221515
 10
211.1623283702
 20
13.8547152236
 10
211.9039779707
 20
15.8133301932
 10
212.715698918
 20
17.7642198663
 10
213.5951508105
 20
19.701759323
 10
214.5397979606
 20
21.6203621353
 10
215.5469167062
 20
23.5144964749
 10
216.613603263
 20
25.3787010619
 10
217.7367820978
 20
27.2076009119
 10
218.913214795
 20
28.9959228334
 10
220.1395093948
 20
30.7385106312
 10
221.4121301722
 20
32.4303399735
 10
222.7274078323
 20
34.0665328785
 10
224.0815500889
 20
35.6423717784
 10
225.4706525995
 20
37.1533131218
 10
226.8907102218
 20
38.5950004735
 10
228.3376285622
 20
39.9632770758
 10
229.8072357805
 20
41.254197833
 10
231.2952946187
 20
42.4640406864
 10
232.7975146178
 20
43.5893173458
 10
234.3095644888
 20
44.6267833473
 10
235.8270846005
 20
45.5734474079
 10
237.3456995495
 20
46.4265800501
 10
238.8610307758
 20
47.1837214714
 10
240.3687091873
 20
47.8426886374
 10
241.8643877567
 20
48.4015815749
 10
243.3437540555
 20
48.858788851
 10
244.8025426878
 20
49.2129922188
 10
246.2365475882
 20
49.4631704182
 10
247.6416341495
 20
49.6086021208
 10
249.0137511433
 20
49.6488680092
 10
250.3489424012
 20
49.5838519866
 10
251.643358221
 20
49.4137415109
 10
252.893266467
 20
49.1390270547
 10
254.09506333
 20
48.7605006909
 10
255.2452837186
 20
48.2792538089
 10
256.3406112496
 20
47.6966739681
 10
257.3778878103
 20
47.014440897
 10
258.3541226638
 20
46.2345216502
 10
259.2665010723
 20
45.3591649368
 10
260.1123924126
 20
44.3908946366
 10
260.8893577611
 20
43.3325025238
 10
261.5951569254
 20
42.1870402167
 10
262.227754904
 20
40.9578103797
 10
262.785327753
 20
39.6483572007
 10
263.2662678456
 20
38.262456172
 10
263.669188507
 20
36.8041032052
 10
263.9929280127
 20
35.2775031095
 10
264.2365529378
 20
33.6870574679
 10
264.3993608486
 20
32.0373519472
 10
264.4808823278
 20
30.3331430752
 10
264.4808823278
 20
28.5793445275
 10
264.3993608486
 20
26.7810129592
 10
264.2365529378
 20
24.9433334257
 10
263.9929280127
 20
23.071604433
 10
263.669188507
 20
21.1712226601
 10
263.2662678456
 20
19.2476673997
 10
262.785327753
 20
17.3064847597
 10
262.227754904
 20
15.353271672
 10
261.5951569254
 20
13.3936597555
 10
260.8893577611
 20
11.4332990789
 10
260.1123924126
 20
9.4778418693
 10
259.2665010723
 20
7.5329262162
 10
258.3541226638
 20
5.6041598147
 10
257.3778878103
 20
3.6971037979
 10
256.3406112496
 20
1.8172567017
 10
255.2452837186
 20
-0.0299613878
 10
254.09506333
 20
-1.8392244629
 10
252.893266467
 20
-3.6053159496
 10
251.643358221
 20
-5.323143749
 10
250.3489424012
 20
-6.987754919
 10
249.0137511433
 20
-8.5943499545
 10
247.6416341495
 20
-10.1382966262
 10
246.2365475882
 20
-11.6151433361
 10
244.8025426878
 20
-13.0206319529
 10
243.3437540555
 20
-14.350710089
 10
241.8643877566
 20
-15.6015427849
 10
240.3687091873
 20
-16.769523566
 10
238.8610307758
 20
-17.8512848415
 10
237.3456995495
 20
-18.8437076135
 10
235.8270846005
 20
-19.7439304703
 10
234.3095644888
 20
-20.5493578363
 10
232.7975146178
 20
-21.257667456
 10
231.2952946187
 20
-21.8668170893
 10
229.8072357805
 20
-22.3750504001
 10
228.3376285622
 20
-22.7809020204
 10
226.8907102218
 20
-23.0832017747
 10
225.4706525995
 20
-23.2810780546
 10
224.0815500889
 20
-23.3739603316
 10
222.7274078323
 20
-23.361580802
 10
221.4121301722
 20
-23.2439751593
 10
220.1395093948
 20
-23.0214824909
 10
218.913214795
 20
-22.6947443008
 10
217.7367820978
 20
-22.2647026598
 10
216.613603263
 20
-21.7325974892
 10
215.5469167062
 20
-21.099962986
 10
214.5397979606
 20
-20.3686231993
 10
213.5951508105
 20
-19.540686771
 10
212.715698918
 20
-18.6185408562
 10
211.9039779707
 20
-17.6048442401
 10
211.1623283702
 20
-16.5025196726
 10
210.4928884841
 20
-15.3147454409
 10
209.8975884812
 20
-14.0449462053
 10
209.3781447653
 20
-12.696783126
 10
208.9360550272
 20
-11.274143306
 10
208.5725939259
 20
-9.7811285842
 10
208.2888094141
 20
-8.2220437086
 10
208.0855197158
 20
-6.6013839244
 10
207.963310968
 20
-4.9238220134
 10
207.92253553
 20
-3.1941948209
  0
SPLINE
  5
11C
330
1F
100
AcDbEntity
  8
0
  6
Continuous
 62
     7
370
    25
100
AcDbSpline
210
0.0
220
0.0
230
1.0
 70
     8
 71
     3
 72
    12
 73
     8
 74
     0
 42
0.00000001
 43
0.00000001
 40
0.0
 40
0.0
 40
0.0
 40
0.0
 40
0.2125441142582075
 40
0.4250971968915722
 40
0.6375435413836288
 40
0.8500029599629707
 40
1.0
 40
1.0
 40
1.0
 40
1.0
 10
236.9139135586132
 20
-19.93586911576023
 30
0.0
 10
236.6517390021592
 20
-20.10020762692526
 30
0.0
 10
236.1273788267017
 20
-20.42889158357772
 30
0.0
 10
235.5342194734256
 20
-20.97404800392907
 30
0.0
 10
235.1184324933056
 20
-21.54183448974012
 30
0.0
 10
234.8877577915749
 20
-22.06873244273652
 30
0.0
 10
234.8857383644556
 20
-22.40383120872498
 30
0.0
 10
234.8849026555497
 20
-22.54250668773342
 30
0.0
  0
SPLINE
  5
11D
330
1F
100
AcDbEntity
  8
0
  6
Continuous
 62
     7
370
    25
100
AcDbSpline
210
0.0
220
0.0
230
1.0
 70
     8
 71
     3
 72
    21
 73
    17
 74
     0
 42
0.00000001
 43
0.00000001
 40
0.0
 40
0.0
 40
0.0
 40
0.0
 40
0.0406844583910517
 40
0.1126313426160803
 40
0.1845737332676891
 40
0.2561939594655171
 40
0.3278106563212725
 40
0.3984369830879471
 40
0.4690662091287464
 40
0.5395942130868154
 40
0.6101266810524224
 40
0.6815893142909356
 40
0.7530511888019487
 40
0.8250386879681587
 40
0.8970210940966041
 40
1.0
 40
1.0
 40
1.0
 40
1.0
 10
248.8393354085012
 20
-22.54244734651773
 30
0.0
 10
248.8426773851498
 20
-22.39745924634407
 30
0.0
 10
248.8519293533905
 20
-21.99607245070455
 30
0.0
 10
248.6448438007182
 20
-21.34974377510314
 30
0.0
 10
248.2470908629056
 20
-20.63780596187665
 30
0.0
 10
247.6542382210038
 20
-19.99893820398664
 30
0.0
 10
246.9060920779106
 20
-19.45345036154193
 30
0.0
 10
246.0163427341981
 20
-19.02163135347706
 30
0.0
 10
245.0194156894027
 20
-18.70719495059627
 30
0.0
 10
243.9354080351894
 20
-18.5189615185248
 30
0.0
 10
242.7924005962558
 20
-18.45031284598131
 30
0.0
 10
241.6187882382727
 20
-18.50336333020359
 30
0.0
 10
240.4429280240513
 20
-18.66659516721088
 30
0.0
 10
239.3071276443832
 20
-18.93500839794972
 30
0.0
 10
238.0727939147532
 20
-19.33763250466697
 30
0.0
 10
237.3432872996097
 20
-19.71421802784143
 30
0.0
 10
236.9139135586132
 20
-19.93586911576024
 30
0.0
  0
LWPOLYLINE
  5
11E
330
1F
100
AcDbEntity
  8
0
  6
Continuous
 62
     7
370
    25
100
AcDbPolyline
 90
      105
 70
   128
 43
0.0
 10
213.9329431701
 20
0.2755396544
 10
213.9735806264
 20
1.8519966387
 10
214.0953447139
 20
3.4696203109
 10
214.2977911286
 20
5.1225081377
 10
214.5801811654
 20
6.8046289105
 10
214.9414844137
 20
8.5098447532
 10
215.3803825172
 20
10.2319335179
 10
215.8952739842
 20
11.9646114897
 10
216.4842800317
 20
13.7015563144
 10
217.1452514404
 20
15.4364300687
 10
217.8757763974
 20
17.1629023866
 10
218.6731892964
 20
18.8746735576
 10
219.534580464
 20
20.5654975145
 10
220.4568067774
 20
22.229204624
 10
221.4365031328
 20
23.8597241993
 10
222.4700947244
 20
25.4511066512
 10
223.5538100886
 20
26.9975451979
 10
224.6836948655
 20
28.4933970526
 10
225.8556262281
 20
29.9332040143
 10
227.0653279261
 20
31.3117123834
 10
228.3083858889
 20
32.6238921325
 10
229.5802643331
 20
33.8649552599
 10
230.876322312
 20
35.0303732609
 10
232.1918306506
 20
36.1158936515
 10
233.5219892017
 20
37.1175554856
 10
234.861944361
 20
38.0317038078
 10
236.2068067774
 20
38.85500299
 10
237.5516691938
 20
39.5844489027
 10
238.8916243531
 20
40.2173798769
 10
240.2217829042
 20
40.7514864162
 10
241.5372912429
 20
41.1848196236
 10
242.8333492218
 20
41.5157983134
 10
244.1052276659
 20
41.7432147801
 10
245.3482856288
 20
41.8662392058
 10
246.5579873267
 20
41.8844226877
 10
247.7299186894
 20
41.7976988761
 10
248.8598034663
 20
41.6063842169
 10
249.9435188304
 20
41.3111767966
 10
250.977110422
 20
40.9131537949
 10
251.9568067774
 20
40.4137675547
 10
252.8790330908
 20
39.8148402822
 10
253.7404242585
 20
39.1185573981
 10
254.5378371574
 20
38.327459563
 10
255.2683621144
 20
37.4444334073
 10
255.9293335232
 20
36.4727009976
 10
256.5183395706
 20
35.41580808
 10
257.0332310377
 20
34.2776111422
 10
257.4721291412
 20
33.0622633414
 10
257.8334323895
 20
31.7741993499
 10
258.1158224263
 20
30.4181191736
 10
258.3182688409
 20
28.9989710019
 10
258.4400329284
 20
27.5219331527
 10
258.4806703848
 20
25.9923951768
 10
258.4400329284
 20
24.4159381924
 10
258.3182688409
 20
22.7983145202
 10
258.1158224263
 20
21.1454266935
 10
257.8334323895
 20
19.4633059206
 10
257.4721291412
 20
17.758090078
 10
257.0332310377
 20
16.0360013132
 10
256.5183395706
 20
14.3033233415
 10
255.9293335232
 20
12.5663785168
 10
255.2683621144
 20
10.8315047624
 10
254.5378371574
 20
9.1050324446
 10
253.7404242585
 20
7.3932612735
 10
252.8790330908
 20
5.7024373166
 10
251.9568067774
 20
4.0387302071
 10
250.977110422
 20
2.4082106319
 10
249.9435188304
 20
0.8168281799
 10
248.8598034663
 20
-0.7296103667
 10
247.7299186894
 20
-2.2254622214
 10
246.5579873267
 20
-3.6652691831
 10
245.3482856288
 20
-5.0437775523
 10
244.1052276659
 20
-6.3559573014
 10
242.8333492218
 20
-7.5970204288
 10
241.5372912429
 20
-8.7624384297
 10
240.2217829042
 20
-9.8479588204
 10
238.8916243531
 20
-10.8496206545
 10
237.5516691938
 20
-11.7637689767
 10
236.2068067774
 20
-12.5870681588
 10
234.861944361
 20
-13.3165140715
 10
233.5219892017
 20
-13.9494450458
 10
232.1918306506
 20
-14.483551585
 10
230.876322312
 20
-14.9168847925
 10
229.5802643331
 20
-15.2478634822
 10
228.3083858889
 20
-15.475279949
 10
227.0653279261
 20
-15.5983043747
 10
225.8556262281
 20
-15.6164878565
 10
224.6836948655
 20
-15.5297640449
 10
223.5538100886
 20
-15.3384493858
 10
222.4700947244
 20
-15.0432419654
 10
221.4365031328
 20
-14.6452189638
 10
220.4568067774
 20
-14.1458327236
 10
219.534580464
 20
-13.5469054511
 10
218.6731892964
 20
-12.8506225669
 10
217.8757763974
 20
-12.0595247319
 10
217.1452514404
 20
-11.1764985761
 10
216.4842800317
 20
-10.2047661664
 10
215.8952739842
 20
-9.1478732488
 10
215.3803825172
 20
-8.009676311
 10
214.9414844137
 20
-6.7943285102
 10
214.5801811654
 20
-5.5062645188
 10
214.2977911286
 20
-4.1501843425
 10
214.0953447139
 20
-2.7310361708
 10
213.9735806264
 20
-1.2539983215
 10
213.9329431701
 20
0.2755396544
  0
LWPOLYLINE
  5
11F
330
1F
100
AcDbEntity
  8
0
  6
Continuous
 62
     7
370
    25
100
AcDbPolyline
 90
       50
 70
   128
 43
0.0
 10
236.9139135586
 20
-39.941119007
 10
237.5875105742
 20
-39.5991786221
 10
238.331321862
 20
-39.3097717842
 10
239.1331340613
 20
-39.0776505454
 10
239.9797814378
 20
-38.90662633
 10
240.8573620651
 20
-38.799507351
 10
241.7514660935
 20
-38.758052499
 10
242.6474123596
 20
-38.7829424615
 10
243.5304894506
 20
-38.8737685461
 10
244.3861972648
 20
-39.0290393909
 10
245.2004851038
 20
-39.246205453
 10
245.9599823837
 20
-39.5217008716
 10
246.6522181802
 20
-39.8510020196
 10
247.2658260006
 20
-40.2287017813
 10
247.7907304215
 20
-40.6485983369
 10
248.2183125268
 20
-41.1037969967
 10
248.5415514302
 20
-41.5868234112
 10
248.7551395577
 20
-42.0897463
 10
248.8555697983
 20
-42.6043076834
 10
248.8411930902
 20
-43.1220584774
 10
248.7122454985
 20
-43.6344972285
 10
248.4708443391
 20
-44.1332097065
 10
248.1209534124
 20
-44.6100070663
 10
247.6683179177
 20
-45.0570603084
 10
247.1203701173
 20
-45.467028831
 10
246.486107299
 20
-45.8331809622
 10
245.7759440408
 20
-46.1495044943
 10
245.0015412036
 20
-46.4108054034
 10
244.1756144606
 20
-46.6127931359
 10
243.3117255062
 20
-46.7521510589
 10
242.424059373
 20
-46.8265909191
 10
241.5271915146
 20
-46.8348904161
 10
240.6358484762
 20
-46.7769132723
 10
239.7646660859
 20
-46.6536114708
 10
238.9279491346
 20
-46.4670096238
 10
238.1394364913
 20
-46.2201717285
 10
237.412075512
 20
-45.9171508563
 10
236.7578094437
 20
-45.5629226016
 10
236.1873813173
 20
-45.1633033824
 10
235.7101575468
 20
-44.7248549353
 10
235.3339741333
 20
-44.2547765718
 10
235.0650079981
 20
-43.7607869655
 10
234.9076755577
 20
-43.2509974121
 10
234.8645602063
 20
-42.7337786419
 10
234.9363698969
 20
-42.217623373
 10
235.1219255164
 20
-41.7110068605
 10
235.4181802466
 20
-41.2222477335
 10
235.820269593
 20
-40.7593714035
 10
236.3215912596
 20
-40.329978287
 10
236.9139135586
 20
-39.941119007
  0
LWPOLYLINE
  5
120
330
1F
100
AcDbEntity
  8
0
  6
Continuous
 62
     7
370
    25
100
AcDbPolyline
 90
       42
 70
   128
 43
0.0
 10
238.328127121
 20
-40.7575271188
 10
238.9092588001
 20
-40.4698867268
 10
239.5596391635
 20
-40.2368281672
 10
240.2640238465
 20
-40.0638141352
 10
241.0059026692
 20
-39.9548999331
 10
241.7678866208
 20
-39.9126384173
 10
242.5321154433
 20
-39.9380201621
 10
243.2806762609
 20
-40.0304502409
 10
243.9960234424
 20
-40.1877621708
 10
244.6613898562
 20
-40.4062686938
 10
245.2611798774
 20
-40.6808482019
 10
245.7813349364
 20
-41.0050647844
 10
246.2096630395
 20
-41.3713190792
 10
246.5361245388
 20
-41.7710263961
 10
246.7530674537
 20
-42.1948179345
 10
246.8554068259
 20
-42.6327603798
 10
246.8407439075
 20
-43.0745887323
 10
246.7094223847
 20
-43.5099469099
 10
246.4645203227
 20
-43.9286304859
 10
246.1117780184
 20
-44.3208258721
 10
245.6594634523
 20
-44.6773403412
 10
245.1181784946
 20
-44.989817496
 10
244.5006104058
 20
-45.250933137
 10
243.8212344585
 20
-45.4545669349
 10
243.0959746492
 20
-45.5959458859
 10
242.341830453
 20
-45.6717561873
 10
241.5764783708
 20
-45.68022091
 10
240.8178576066
 20
-45.6211416479
 10
240.0837495882
 20
-45.4959031689
 10
239.3913611853
 20
-45.3074409569
 10
238.7569213953
 20
-45.0601724063
 10
238.1953009491
 20
-44.7598932823
 10
237.719663754
 20
-44.4136418732
 10
237.3411583427
 20
-44.0295340185
 10
237.0686565612
 20
-43.6165728808
 10
236.9085456203
 20
-43.184437919
 10
236.8645783848
 20
-42.7432580106
 10
236.9377854094
 20
-42.3033740385
 10
237.1264507834
 20
-41.8750965103
 10
237.4261523506
 20
-41.4684638882
 10
237.82986536
 20
-41.0930072963
 10
238.328127121
 20
-40.7575271188
  0
LWPOLYLINE
  5
121
330
1F
100
AcDbEntity
  8
0
  6
Continuous
 62
     7
370
    25
100
AcDbPolyline
 90
       34
 70
   128
 43
0.0
 10
319.5807842006
 20
-9.0167468838
 10
319.5816984585
 20
-9.0172747594
 10
320.3556005588
 20
-9.5303837577
 10
321.0682316102
 20
-10.1401720763
 10
321.7159602081
 20
-10.8435323734
 10
322.2954856761
 20
-11.6368804864
 10
322.8038548852
 20
-12.5161736952
 10
323.2384773025
 20
-13.4769313229
 10
323.5971381917
 20
-14.5142575691
 10
323.8780098992
 20
-15.6228664569
 10
324.0796611671
 20
-16.7971087696
 10
324.2010644268
 20
-18.0310008375
 10
324.2416010352
 20
-19.3182550294
 10
324.2010644268
 20
-20.652311793
 10
324.0796611671
 20
-22.026373081
 10
323.8780098992
 20
-23.4334369919
 10
323.5971381917
 20
-24.8663334505
 10
323.2384773025
 20
-26.317760745
 10
322.8038548852
 20
-27.7803227345
 10
322.2954856761
 20
-29.2465665385
 10
321.7159602081
 20
-30.7090205145
 10
321.0682316102
 20
-32.1602323324
 10
320.3556005588
 20
-33.5928069493
 10
319.5816984585
 20
-34.9994442934
 10
318.7504689368
 20
-36.3729764632
 10
317.866147749
 20
-37.7064042537
 10
316.9332411932
 20
-38.9929328224
 10
315.9565031472
 20
-40.2260063147
 10
314.9409108442
 20
-41.3993412706
 10
313.8916395099
 20
-42.5069586443
 10
312.8140359905
 20
-43.5432142714
 10
311.7135915064
 20
-44.5028276308
 10
310.5959136706
 20
-45.3809087528
 10
309.674844209
 20
-46.03404605
  0
SPLINE
  5
122
330
1F
100
AcDbEntity
  8
0
  6
Continuous
 62
     7
370
    25
100
AcDbSpline
210
0.0
220
0.0
230
1.0
 70
     8
 71
     3
 72
    12
 73
     8
 74
     0
 42
0.00000001
 43
0.00000001
 40
0.0
 40
0.0
 40
0.0
 40
0.0
 40
0.2078859224387599
 40
0.4157976130567693
 40
0.623401519137122
 40
0.831043894912324
 40
0.9999999999999999
 40
0.9999999999999999
 40
0.9999999999999999
 40
0.9999999999999999
 10
297.7250967406564
 20
-40.75195371613604
 30
0.0
 10
297.4673289403179
 20
-40.91119165599815
 30
0.0
 10
296.9517613884304
 20
-41.22968727381588
 30
0.0
 10
296.3660632635066
 20
-41.73162236506713
 30
0.0
 10
295.9501630513905
 20
-42.23791656564833
 30
0.0
 10
295.7075304278434
 20
-42.71512071730889
 30
0.0
 10
295.6963236473637
 20
-43.02177509561354
 30
0.0
 10
295.6912958682391
 20
-43.15935167119537
 30
0.0
  0
SPLINE
  5
123
330
1F
100
AcDbEntity
  8
0
  6
Continuous
 62
     7
370
    25
100
AcDbSpline
210
0.0
220
0.0
230
1.0
 70
     8
 71
     3
 72
    22
 73
    18
 74
     0
 42
0.00000001
 43
0.00000001
 40
0.0
 40
0.0
 40
0.0
 40
0.0
 40
0.0174324439113516
 40
0.0898903025447727
 40
0.1623358503852916
 40
0.2344884299736429
 40
0.3066255053281741
 40
0.375519171209489
 40
0.4444193231619553
 40
0.51232520732724
 40
0.5802449718180266
 40
0.65081036112604
 40
0.7213772457050793
 40
0.7942216706839467
 40
0.8670503155231996
 40
0.9335286813103044
 40
1.0
 40
1.0
 40
1.0
 40
1.0
 10
309.6572310533621
 20
-43.15847555046648
 30
0.0
 10
309.6625214646286
 20
-43.09131509194418
 30
0.0
 10
309.6898014416502
 20
-42.74500255158465
 30
0.0
 10
309.5421729180275
 20
-42.12006320650899
 30
0.0
 10
309.208822653966
 20
-41.327501360922
 30
0.0
 10
308.665449277247
 20
-40.61478540348998
 30
0.0
 10
307.9651590832145
 20
-40.01682040278885
 30
0.0
 10
307.1240964536389
 20
-39.55753471153676
 30
0.0
 10
306.1865279797002
 20
-39.2366723705053
 30
0.0
 10
305.16409361897
 20
-39.05544360748422
 30
0.0
 10
304.0747696090264
 20
-38.99960272826072
 30
0.0
 10
302.9364820711361
 20
-39.06900189009578
 30
0.0
 10
301.7650547918769
 20
-39.25205415443818
 30
0.0
 10
300.6034757371861
 20
-39.53863028710015
 30
0.0
 10
299.5195365000164
 20
-39.90089379180151
 30
0.0
 10
298.5414387936999
 20
-40.30934924971842
 30
0.0
 10
297.9972011424297
 20
-40.6044241075513
 30
0.0
 10
297.7250967406564
 20
-40.75195371613604
 30
0.0
  0
LWPOLYLINE
  5
124
330
1F
100
AcDbEntity
  8
0
  6
Continuous
 62
     7
370
    25
100
AcDbPolyline
 90
       50
 70
   128
 43
0.0
 10
297.7250967407
 20
-55.857958736
 10
298.3986937563
 20
-55.5160183512
 10
299.1425050441
 20
-55.2266115133
 10
299.9443172433
 20
-54.9944902744
 10
300.7909646198
 20
-54.8234660591
 10
301.6685452471
 20
-54.71634708
 10
302.5626492756
 20
-54.674892228
 10
303.4585955417
 20
-54.6997821906
 10
304.3416726326
 20
-54.7906082751
 10
305.1973804469
 20
-54.94587912
 10
306.0116682859
 20
-55.1630451821
 10
306.7711655658
 20
-55.4385406007
 10
307.4634013623
 20
-55.7678417487
 10
308.0770091827
 20
-56.1455415103
 10
308.6019136036
 20
-56.5654380659
 10
309.0294957089
 20
-57.0206367257
 10
309.3527346122
 20
-57.5036631402
 10
309.5663227397
 20
-58.0065860291
 10
309.6667529803
 20
-58.5211474124
 10
309.6523762722
 20
-59.0388982065
 10
309.5234286805
 20
-59.5513369576
 10
309.2820275211
 20
-60.0500494356
 10
308.9321365944
 20
-60.5268467954
 10
308.4795010997
 20
-60.9739000375
 10
307.9315532994
 20
-61.3838685601
 10
307.2972904811
 20
-61.7500206913
 10
306.5871272228
 20
-62.0663442233
 10
305.8127243856
 20
-62.3276451324
 10
304.9867976426
 20
-62.529632865
 10
304.1229086882
 20
-62.668990788
 10
303.2352425551
 20
-62.7434306482
 10
302.3383746966
 20
-62.7517301451
 10
301.4470316582
 20
-62.6937530013
 10
300.575849268
 20
-62.5704511998
 10
299.7391323166
 20
-62.3838493529
 10
298.9506196734
 20
-62.1370114576
 10
298.223258694
 20
-61.8339905854
 10
297.5689926258
 20
-61.4797623306
 10
296.9985644994
 20
-61.0801431115
 10
296.5213407289
 20
-60.6416946644
 10
296.1451573154
 20
-60.1716163008
 10
295.8761911802
 20
-59.6776266945
 10
295.7188587397
 20
-59.1678371411
 10
295.6757433884
 20
-58.650618371
 10
295.747553079
 20
-58.134463102
 10
295.9331086985
 20
-57.6278465895
 10
296.2293634286
 20
-57.1390874626
 10
296.631452775
 20
-56.6762111326
 10
297.1327744416
 20
-56.246818016
 10
297.7250967407
 20
-55.857958736
  0
LWPOLYLINE
  5
125
330
1F
100
AcDbEntity
  8
0
  6
Continuous
 62
     7
370
    25
100
AcDbPolyline
 90
       42
 70
   128
 43
0.0
 10
299.139310303
 20
-56.6743668478
 10
299.7204419822
 20
-56.3867264558
 10
300.3708223455
 20
-56.1536678963
 10
301.0752070285
 20
-55.9806538643
 10
301.8170858512
 20
-55.8717396621
 10
302.5790698029
 20
-55.8294781464
 10
303.3432986254
 20
-55.8548598912
 10
304.0918594429
 20
-55.9472899699
 10
304.8072066244
 20
-56.1046018999
 10
305.4725730382
 20
-56.3231084228
 10
306.0723630595
 20
-56.597687931
 10
306.5925181185
 20
-56.9219045134
 10
307.0208462215
 20
-57.2881588082
 10
307.3473077209
 20
-57.6878661252
 10
307.5642506357
 20
-58.1116576636
 10
307.666590008
 20
-58.5496001089
 10
307.6519270895
 20
-58.9914284614
 10
307.5206055667
 20
-59.426786639
 10
307.2757035048
 20
-59.845470215
 10
306.9229612004
 20
-60.2376656012
 10
306.4706466344
 20
-60.5941800702
 10
305.9293616766
 20
-60.9066572251
 10
305.3117935878
 20
-61.1677728661
 10
304.6324176406
 20
-61.3714066639
 10
303.9071578312
 20
-61.5127856149
 10
303.153013635
 20
-61.5885959164
 10
302.3876615528
 20
-61.597060639
 10
301.6290407886
 20
-61.537981377
 10
300.8949327702
 20
-61.412742898
 10
300.2025443673
 20
-61.2242806859
 10
299.5681045773
 20
-60.9770121353
 10
299.0064841312
 20
-60.6767330114
 10
298.530846936
 20
-60.3304816023
 10
298.1523415247
 20
-59.9463737476
 10
297.8798397432
 20
-59.5334126098
 10
297.7197288023
 20
-59.1012776481
 10
297.6757615668
 20
-58.6600977396
 10
297.7489685914
 20
-58.2202137675
 10
297.9376339655
 20
-57.7919362393
 10
298.2373355326
 20
-57.3853036173
 10
298.641048542
 20
-57.0098470253
 10
299.139310303
 20
-56.6743668478
  0
LWPOLYLINE
  5
126
330
1F
100
AcDbEntity
  8
0
  6
Continuous
 62
     1
370
    25
100
AcDbPolyline
 90
       61
 70
   128
 43
0.0
 10
292.0662528433
 20
27.0737660418
 10
292.2016826628
 20
26.9945180991
 10
293.2389592235
 20
26.312285028
 10
294.215194077
 20
25.5323657812
 10
295.1275724855
 20
24.6570090677
 10
295.9734638258
 20
23.6887387676
 10
296.7504291742
 20
22.6303466548
 10
297.4562283386
 20
21.4848843477
 10
298.0888263171
 20
20.2556545107
 10
298.6463991661
 20
18.9462013316
 10
299.1273392587
 20
17.560300303
 10
299.5302599202
 20
16.1019473362
 10
299.8539994258
 20
14.5753472404
 10
300.0976243509
 20
12.9849015989
 10
300.2604322617
 20
11.3351960781
 10
300.3419537409
 20
9.6309872062
 10
300.3419537409
 20
7.8771886585
 10
300.2604322617
 20
6.0788570901
 10
300.0976243509
 20
4.2411775567
 10
299.8539994258
 20
2.3694485639
 10
299.5302599202
 20
0.4690667911
 10
299.1273392587
 20
-1.4544884693
 10
298.6463991661
 20
-3.3956711094
 10
298.0888263171
 20
-5.3488841971
 10
297.4562283386
 20
-7.3084961135
 10
296.7504291742
 20
-9.2688567901
 10
295.9734638258
 20
-11.2243139997
 10
295.1275724855
 20
-13.1692296529
 10
294.215194077
 20
-15.0979960543
 10
293.2389592235
 20
-17.0050520712
 10
292.2016826628
 20
-18.8848991673
 10
291.1063551317
 20
-20.7321172569
 10
289.9561347431
 20
-22.5413803319
 10
288.7543378801
 20
-24.3074718186
 10
287.5044296342
 20
-26.0252996181
 10
286.2100138143
 20
-27.689910788
 10
284.8748225565
 20
-29.2965058235
 10
283.5027055627
 20
-30.8404524952
 10
282.0976190014
 20
-32.3172992051
 10
280.6636141009
 20
-33.7227878219
 10
279.2048254686
 20
-35.052865958
 10
277.7254591698
 20
-36.3036986539
 10
276.2297806004
 20
-37.471679435
 10
274.722102189
 20
-38.5534407105
 10
273.2067709627
 20
-39.5458634825
 10
271.6881560137
 20
-40.4460863393
 10
270.170635902
 20
-41.2515137053
 10
268.658586031
 20
-41.959823325
 10
267.1563660318
 20
-42.5689729583
 10
265.6683071937
 20
-43.0772062692
 10
264.1986999754
 20
-43.4830578894
 10
262.751781635
 20
-43.7853576437
 10
261.3317240127
 20
-43.9832339236
 10
259.9426215021
 20
-44.0761162006
 10
258.5884792455
 20
-44.0637366711
 10
257.2732015854
 20
-43.9461310283
 10
256.0005808079
 20
-43.7236383599
 10
254.7742862082
 20
-43.3969001698
 10
253.5978535109
 20
-42.9668585288
 10
252.4746746762
 20
-42.4347533582
 10
252.1503154902
 20
-42.2564192381
  0
ENDSEC
  0
SECTION
  2
OBJECTS
  0
DICTIONARY
  5
C
330
0
100
AcDbDictionary
281
     1
  3
ACAD_GROUP
350
D
  3
ACAD_LAYOUT
350
1A
  3
ACAD_MLINESTYLE
350
17
  3
ACAD_PLOTSETTINGS
350
19
  3
ACAD_PLOTSTYLENAME
350
E
  3
ACAD_SCALELIST
350
47
  3
DWGPROPS
350
127
  0
DICTIONARY
  5
D
102
{ACAD_REACTORS
330
C
102
}
330
C
100
AcDbDictionary
281
     1
  0
DICTIONARY
  5
1A
102
{ACAD_REACTORS
330
C
102
}
330
C
100
AcDbDictionary
281
     1
  3
Layout1
350
1E
  3
Layout2
350
26
  3
Model
350
22
  0
DICTIONARY
  5
17
102
{ACAD_REACTORS
330
C
102
}
330
C
100
AcDbDictionary
281
     1
  3
Standard
350
18
  0
DICTIONARY
  5
19
102
{ACAD_REACTORS
330
C
102
}
330
C
100
AcDbDictionary
281
     1
  0
ACDBDICTIONARYWDFLT
  5
E
102
{ACAD_REACTORS
330
C
102
}
330
C
100
AcDbDictionary
281
     1
  3
Normal
350
F
100
AcDbDictionaryWithDefault
340
F
  0
DICTIONARY
  5
47
102
{ACAD_REACTORS
330
C
102
}
330
C
100
AcDbDictionary
281
     1
  3
A0
350
48
  3
A1
350
49
  3
A2
350
4A
  3
A3
350
4B
  3
A4
350
4C
  3
A5
350
4D
  3
A6
350
4E
  3
A7
350
4F
  3
A8
350
50
  3
A9
350
51
  3
B0
350
52
  3
B1
350
53
  3
B2
350
54
  3
B3
350
55
  3
B4
350
56
  3
B5
350
57
  3
B6
350
58
  3
B7
350
59
  3
B8
350
5A
  3
B9
350
5B
  3
C0
350
5C
  3
C1
350
5D
  3
C2
350
5E
  3
C3
350
5F
  3
C4
350
60
  3
C5
350
61
  3
C6
350
62
  3
C7
350
63
  3
C8
350
64
  3
C9
350
65
  3
D0
350
66
  3
D1
350
67
  3
D2
350
68
  0
XRECORD
  5
127
102
{ACAD_REACTORS
330
C
102
}
330
C
100
AcDbXrecord
280
     1
  1
DWGPROPS COOKIE
  2

  3

  4

  6

  7

  8
b.kav
  9

300
=
301
=
302
=
303
=
304
=
305
=
306
=
307
=
308
=
309
=
 40
0.0
 41
2460346.545761227
 42
2460346.5457614
  1

 90
        0
  0
LAYOUT
  5
1E
102
{ACAD_REACTORS
330
1A
102
}
330
1A
100
AcDbPlotSettings
  1

  2
none_device
  4

  6

 40
0.0
 41
0.0
 42
0.0
 43
0.0
 44
0.0
 45
0.0
 46
0.0
 47
0.0
 48
0.0
 49
0.0
140
0.0
141
0.0
142
1.0
143
1.0
 70
   688
 72
     1
 73
     0
 74
     5
  7

 75
    16
147
1.0
148
0.0
149
0.0
100
AcDbLayout
  1
Layout1
 70
     1
 71
     1
 10
0.0
 20
0.0
 11
420.0
 21
297.0
 12
0.0
 22
0.0
 32
0.0
 14
1.0000000000E+20
 24
1.0000000000E+20
 34
1.0000000000E+20
 15
-1.0000000000E+20
 25
-1.0000000000E+20
 35
-1.0000000000E+20
146
0.0
 13
0.0
 23
0.0
 33
0.0
 16
1.0
 26
0.0
 36
0.0
 17
0.0
 27
1.0
 37
0.0
 76
     0
330
1B
  0
LAYOUT
  5
26
102
{ACAD_REACTORS
330
1A
102
}
330
1A
100
AcDbPlotSettings
  1

  2
none_device
  4

  6

 40
0.0
 41
0.0
 42
0.0
 43
0.0
 44
0.0
 45
0.0
 46
0.0
 47
0.0
 48
0.0
 49
0.0
140
0.0
141
0.0
142
1.0
143
1.0
 70
   688
 72
     1
 73
     0
 74
     5
  7

 75
    16
147
1.0
148
0.0
149
0.0
100
AcDbLayout
  1
Layout2
 70
     1
 71
     2
 10
0.0
 20
0.0
 11
0.0
 21
0.0
 12
0.0
 22
0.0
 32
0.0
 14
0.0
 24
0.0
 34
0.0
 15
0.0
 25
0.0
 35
0.0
146
0.0
 13
0.0
 23
0.0
 33
0.0
 16
1.0
 26
0.0
 36
0.0
 17
0.0
 27
1.0
 37
0.0
 76
     0
330
23
  0
LAYOUT
  5
22
102
{ACAD_REACTORS
330
1A
102
}
330
1A
100
AcDbPlotSettings
  1

  2
none_device
  4
Letter_(8.50_x_11.00_Inches)
  6

 40
6.35
 41
6.35
 42
6.35000508
 43
6.35000508
 44
215.9
 45
279.4
 46
0.0
 47
0.0
 48
0.0
 49
0.0
140
0.0
141
0.0
142
1.0
143
1.0
 70
  1712
 72
     1
 73
     0
 74
     0
  7

 75
     0
147
1.0
148
0.0
149
0.0
100
AcDbLayout
  1
Model
 70
     1
 71
     0
 10
0.0
 20
0.0
 11
279.4
 21
215.9
 12
0.0
 22
0.0
 32
0.0
 14
0.0
 24
0.0
 34
0.0
 15
279.4
 25
215.9
 35
0.0
146
0.0
 13
0.0
 23
0.0
 33
0.0
 16
1.0
 26
0.0
 36
0.0
 17
0.0
 27
1.0
 37
0.0
 76
     0
330
1F
331
29
  0
MLINESTYLE
  5
18
102
{ACAD_REACTORS
330
17
102
}
330
17
100
AcDbMlineStyle
  2
Standard
 70
     0
  3

 62
   256
 51
90.0
 52
90.0
 71
     2
 49
0.5
 62
   256
  6
BYLAYER
 49
-0.5
 62
   256
  6
BYLAYER
  0
ACDBPLACEHOLDER
  5
F
102
{ACAD_REACTORS
330
E
102
}
330
E
  0
SCALE
  5
48
102
{ACAD_REACTORS
330
47
102
}
330
47
100
AcDbScale
 70
     0
300
1:1
140
1.0
141
1.0
290
     1
  0
SCALE
  5
49
102
{ACAD_REACTORS
330
47
102
}
330
47
100
AcDbScale
 70
     0
300
1:2
140
1.0
141
2.0
290
     0
  0
SCALE
  5
4A
102
{ACAD_REACTORS
330
47
102
}
330
47
100
AcDbScale
 70
     0
300
1:4
140
1.0
141
4.0
290
     0
  0
SCALE
  5
4B
102
{ACAD_REACTORS
330
47
102
}
330
47
100
AcDbScale
 70
     0
300
1:5
140
1.0
141
5.0
290
     0
  0
SCALE
  5
4C
102
{ACAD_REACTORS
330
47
102
}
330
47
100
AcDbScale
 70
     0
300
1:8
140
1.0
141
8.0
290
     0
  0
SCALE
  5
4D
102
{ACAD_REACTORS
330
47
102
}
330
47
100
AcDbScale
 70
     0
300
1:10
140
1.0
141
10.0
290
     0
  0
SCALE
  5
4E
102
{ACAD_REACTORS
330
47
102
}
330
47
100
AcDbScale
 70
     0
300
1:16
140
1.0
141
16.0
290
     0
  0
SCALE
  5
4F
102
{ACAD_REACTORS
330
47
102
}
330
47
100
AcDbScale
 70
     0
300
1:20
140
1.0
141
20.0
290
     0
  0
SCALE
  5
50
102
{ACAD_REACTORS
330
47
102
}
330
47
100
AcDbScale
 70
     0
300
1:30
140
1.0
141
30.0
290
     0
  0
SCALE
  5
51
102
{ACAD_REACTORS
330
47
102
}
330
47
100
AcDbScale
 70
     0
300
1:40
140
1.0
141
40.0
290
     0
  0
SCALE
  5
52
102
{ACAD_REACTORS
330
47
102
}
330
47
100
AcDbScale
 70
     0
300
1:50
140
1.0
141
50.0
290
     0
  0
SCALE
  5
53
102
{ACAD_REACTORS
330
47
102
}
330
47
100
AcDbScale
 70
     0
300
1:100
140
1.0
141
100.0
290
     0
  0
SCALE
  5
54
102
{ACAD_REACTORS
330
47
102
}
330
47
100
AcDbScale
 70
     0
300
2:1
140
2.0
141
1.0
290
     0
  0
SCALE
  5
55
102
{ACAD_REACTORS
330
47
102
}
330
47
100
AcDbScale
 70
     0
300
4:1
140
4.0
141
1.0
290
     0
  0
SCALE
  5
56
102
{ACAD_REACTORS
330
47
102
}
330
47
100
AcDbScale
 70
     0
300
8:1
140
8.0
141
1.0
290
     0
  0
SCALE
  5
57
102
{ACAD_REACTORS
330
47
102
}
330
47
100
AcDbScale
 70
     0
300
10:1
140
10.0
141
1.0
290
     0
  0
SCALE
  5
58
102
{ACAD_REACTORS
330
47
102
}
330
47
100
AcDbScale
 70
     0
300
100:1
140
100.0
141
1.0
290
     0
  0
SCALE
  5
59
102
{ACAD_REACTORS
330
47
102
}
330
47
100
AcDbScale
 70
     0
300
1/128" = 1'-0"
140
0.0078125
141
12.0
290
     0
  0
SCALE
  5
5A
102
{ACAD_REACTORS
330
47
102
}
330
47
100
AcDbScale
 70
     0
300
1/64" = 1'-0"
140
0.015625
141
12.0
290
     0
  0
SCALE
  5
5B
102
{ACAD_REACTORS
330
47
102
}
330
47
100
AcDbScale
 70
     0
300
1/32" = 1'-0"
140
0.03125
141
12.0
290
     0
  0
SCALE
  5
5C
102
{ACAD_REACTORS
330
47
102
}
330
47
100
AcDbScale
 70
     0
300
1/16" = 1'-0"
140
0.0625
141
12.0
290
     0
  0
SCALE
  5
5D
102
{ACAD_REACTORS
330
47
102
}
330
47
100
AcDbScale
 70
     0
300
3/32" = 1'-0"
140
0.09375
141
12.0
290
     0
  0
SCALE
  5
5E
102
{ACAD_REACTORS
330
47
102
}
330
47
100
AcDbScale
 70
     0
300
1/8" = 1'-0"
140
0.125
141
12.0
290
     0
  0
SCALE
  5
5F
102
{ACAD_REACTORS
330
47
102
}
330
47
100
AcDbScale
 70
     0
300
3/16" = 1'-0"
140
0.1875
141
12.0
290
     0
  0
SCALE
  5
60
102
{ACAD_REACTORS
330
47
102
}
330
47
100
AcDbScale
 70
     0
300
1/4" = 1'-0"
140
0.25
141
12.0
290
     0
  0
SCALE
  5
61
102
{ACAD_REACTORS
330
47
102
}
330
47
100
AcDbScale
 70
     0
300
3/8" = 1'-0"
140
0.375
141
12.0
290
     0
  0
SCALE
  5
62
102
{ACAD_REACTORS
330
47
102
}
330
47
100
AcDbScale
 70
     0
300
1/2" = 1'-0"
140
0.5
141
12.0
290
     0
  0
SCALE
  5
63
102
{ACAD_REACTORS
330
47
102
}
330
47
100
AcDbScale
 70
     0
300
3/4" = 1'-0"
140
0.75
141
12.0
290
     0
  0
SCALE
  5
64
102
{ACAD_REACTORS
330
47
102
}
330
47
100
AcDbScale
 70
     0
300
1" = 1'-0"
140
1.0
141
12.0
290
     0
  0
SCALE
  5
65
102
{ACAD_REACTORS
330
47
102
}
330
47
100
AcDbScale
 70
     0
300
1-1/2" = 1'-0"
140
1.5
141
12.0
290
     0
  0
SCALE
  5
66
102
{ACAD_REACTORS
330
47
102
}
330
47
100
AcDbScale
 70
     0
300
3" = 1'-0"
140
3.0
141
12.0
290
     0
  0
SCALE
  5
67
102
{ACAD_REACTORS
330
47
102
}
330
47
100
AcDbScale
 70
     0
300
6" = 1'-0"
140
6.0
141
12.0
290
     0
  0
SCALE
  5
68
102
{ACAD_REACTORS
330
47
102
}
330
47
100
AcDbScale
 70
     0
300
1'-0" = 1'-0"
140
12.0
141
12.0
290
     0
  0
ENDSEC
  0
EOF
